Artist: nirvana, Title: in bloom

DAFCGD Resources

Create Chord Sheets Guitar Tuner Songs Videos Tuning Map

D

A

F

C

G

D

nirvana - in bloom

e|----------------------------------------------------------------------------|
B|----------------------------------------------------------------------------|
G|--3--3-3/-------------------------------------------------------------------|
D|--3--3-3/---5----------------3--3--3/6--6-----------------------------------|
A|--1--1-1/---5----------------3--3--3/6--6-----------------0-----------------|
E|------------3----------------1--1--1/4--4--4----1--4------------------------|
 
e|----------------------------------------------------------------------------|
B|----------------------------------------------------------------------------|
G|--3--3-3/-------------------------------------------------------------------|
D|--3--3-3/----5------------3--3-3/6---6--------------------------------------|
A|--1--1-1/----5------------3--3-3/6---6--------------------------------------|
E|-------------3------------1--1-1/4---4--------------------------------------|
 
e|----------------------------------------------------------------------------|
B|----------------------------------------------------------------------------|
G|--3-3-3-3-3-x---------------0-/8-8-8-8-8-x-0-4-4-4-4-0-2-2-2----------------|
D|--3-3-3-3-3-x-0-4-4-4-4-4-x-0-/8-8-8-8-8-x-0-4-4-4-4-0-2-2-2----------------|
A|--1-1-1-1-1-x-0-4-4-4-4-4-x-0-/6-6-6-6-6-x-0-2-2-2-2-0-0-0-0----------------|
E|--------------0-2-2-2-2-2-x-------------------------------------------------|
play twice
 
 
[Verse]
 
e|--1-1-1-1-1-----------------------------------------------------------------|
B|--3-3-3-3-3-x-0--2-2-2-2-2---0-8-8-8-8-x-0-4-4-4-2-2-2----------------------|
G|--3-3-3-3-3-x-0--3-3-3-3-3-x-0-8-8-8-8-x-0-4-4-4-2-2-2----------------------|
D|--3-3-3-3-3-x-0--4-4-4-4-4-x-0-8-8-8-8-x-0-4-4-4-2-2-2----------------------|
A|--1-1-1-1-1-x-0--4-4-4-4-4-x-0-6-6-6-6-x-0-2-2-2-0-0-0----------------------|
E|-----------------2-2-2-2-2-x------------------------------------------------|
 
e|--1-1-1-1-1-----------------------------------------------------------------|
B|--3-3-3-3-3-x-0--2-2-2-2-2---0-8--8-8--8--8-8-------------------------------|
G|--3-3-3-3-3-x-0--3-3-3-3-3-x-0-8--8-8--8--8-8-------------------------------|
D|--3-3-3-3-3-x-0--4-4-4-4-4-x-0-8--8-8--8--8-8-------------------------------|
A|--1-1-1-1-1-x-0--4-4-4-4-4-x-0-6--6-6--6--6-6-------------------------------|
E|-----------------2-2-2-2-2-x------------------------------------------------|
 
distortion
e|----------------------------------------------------------------------------|
B|----------------------------------------------------------------------------|
G|--4-------------7-----------------------------------------------------------|
D|--4-------------7-----------------------------------------------------------|
A|--2-------------5-----------------------------------------------------------|
E|----------------------------------------------------------------------------|
   Trem..........
 
 
[Chorus]
 
e|----------------------------------------------------------------------------|
B|----------------------------------------------------------------------------|
G|--3--3-3--3--3-0--------------0--3--3-3--3--3-0--------------0--------------|
D|--3--3-3--3--3-0--5-5--5-5--5-0--3--3-3--3--3-0--5-5--5-5--5-0--------------| x2
A|--1--1-1--1--1-0--5-5--5-5--5-0--1--1-1--1--1-0--5-5--5-5--5-0--------------|
E|------------------3-3--3-3--3--------------------3-3--3-3--3----------------|
 
e|----------------------------------------------------------------------------|
B|----------------------------------------------------------------------------|
G|--5--5--5-5-5-5-5/8-8-8-8-8-8-8-8--5--5--5-5-5-5-5/8-8-8-8-8-8-8-8----------|
D|--5--5--5-5-5-5-5/8-8-8-8-8-8-8-8--5--5--5-5-5-5-5/8-8-8-8-8-8-8-8----------|
A|--3--3--3-3-3-3-3/6-6-6-6-6-6-6-6--3--3--3-3-3-3-3/6-6-6-6-6-6-6-6----------|
E|----------------------------------------------------------------------------|
 
 
[Solo]
 
e|----------------------------------------------------------------------------|
B|----------------------------------------------------------------------------|
G|--8b~~~~~~~~~~~~~~~~~~~~~~------8b----br8-(0)--6---(6)b------br(6)--6-------|
D|----------------------------------------------------------------------------|
A|----------------------------------------------------------------------------|
E|----------------------------------------------------------------------------|
 
e|----------------------------------------------------------------------------|
B|----------------------------------------------------------------------------|
G|--6/8--6---8---8b-------6--8--(8)b-8~~6----6--8--8--------------------------|
D|------------------6/8---------------------------------0---------------------|
A|----------------------------------------------------------------------------|
E|----------------------------------------------------------------------------|
 
e|----------------------------------------------------------------------------|
B|------------------------------8-----8/9---8---9b--(11)b----11b--------------|
G|--/10b------br(10)--10----10------------------------------------------------|
D|----------------------------------------------------------------------------|
A|----------------------------------------------------------------------------|
E|----------------------------------------------------------------------------|
 
e|----------------------------------------------------------------------------|
B|--(11)~~~~~11b----br(11)---11/-----------8------8---------------------------|
G|-------------------------------------6------6-------6-----------------------|
D|----------------------------------------------------------------------------|
A|----------------------------------------------------------------------------|
E|----------------------------------------------------------------------------|
 
 
[Outro]
 
e|----------------------------------------------------------------------------|
B|----------------------------------------------------------------------------|
G|--3-------------------------------------------------------------------------|
D|--3-------------------------------------------------------------------------|
A|--1-------------------------------------------------------------------------|
E|----------------------------------------------------------------------------|