Artist: John mayer, Title: in your atmosphere

C#F#BEG#C# Resources

Create Chord Sheets Guitar Tuner Songs Videos Tuning Map

C#

F#

B

E

G#

C#

John mayer - in your atmosphere

Credit to GuitarZero2Hero


E |-----+12--------------------|-----+12----------------------|
B |-----+12-------------0------|-----+12-------------0h9~p7---|
F#|-----+12-0-----0-----0h9~p7-|-----+12-0-----0--------------|
E |-------------------0h7------|---0-------------0h7----------|
B |----------------------------|--0---------------------------|
E |-0-----------5--------------|-0---------5------------------|

E |----------------------------|     E |-----+12--------------------|
B |-----+12--------------------|     B |-----+12-------------0h9~p7-|   
F#|-----+12-0-----0-----0h9~p7-|     F |-----+12-0-----0------------|
E |---0-------------0h7--------| x3  E |---0-------------0h7--------|
B |--0-------------------------|     B |--0-------------------------|
E |-0---------5----------------|     E |-0---------5----------------|

E |----------------------------|---------------------------0--|
B |-----+12--------------------|-----+12-------------------0--|
F#|-----+12-0-----0-----0h9~p7-|-----+12-0-----0-----0h9------|
E |---0-------------0h7--------|---0-------------0h7----------|
B |--0-------------------------|--0---------------------------|
E |-0---------5----------------|-0---------5------------------|

[Verse]
E |-----+12---0----------------|-----+12-------------------0--|
B |-----+12---0----------------|-----+12-------------------0--|
F#|-----+12-0-0----------------|-----+12-0-----0-----0h9------| x2
E |-----------0----------------|-----------------0h7----------|
B |-----------x----------------|------------------------------|
E |-0---------5----------------|-0---------5------------------|
              D--U-UD-DU

E |-----+12---0----------------|-0---0---0----------------|-0--------0--------|
B |-----+12---0----------------|-0---0---0----------------|-0--------0--------|
F#|-----+12-0-0----------------|-10--9---3----------------|-7--------9--------|
E |-----------0----------------|-9---7---2----------------|-5--------7--------|
B |-----------x----------------|-x---x---x----------------|-x--------x--------|
E |-0---------5----------------|-9---7---2----------------|-5--------7--------|
              D--U-UD-DU                 D--U-UD--U-UD-DU   D-D-D-DU D-D-D-DU

[Break]
E |-----+12-------5---5-5-5---5-|---4---4-----0---0-0-0---0-|
B |-----+12-------7---7-7-7---7-|---5---5-----0---0-0-0---0-|
F#|-----+12-0-------------------|-------------7---7-7-7---7-|
E |-----------------------------|-------------5---5-5-5---5-|
B |-----------------------------|---------------------------|
E |-0---------5-----------------|-0-------5-----------------|
                  U – U D U – U               U – U D U - U

E |----0---0------5---5-5-5---5-|---4---4---------------0---|
B |----0---0------7---7-7-7---7-|---5---5---------------0---|
F#|----5---5--------------------|------------0-----0h9------|
E |----4---4--------------------|--------------0h7----------|
B |----0---0--------------------|---------------------------|
E |-0--------5------------------|-0-------5-----------------|
                  U – U D U – U 

[Verse] SAME AS PREVIOUS

[Break]
E |-----+12---0----------------|
B |-----+12---0----------------|
F#|-----+12-0-0----------------|
E |-----------0----------------|  X2
B |-----------x----------------|
E |-0---------5----------------|
    D--U-U D--U-UD-DU

[Chorus]
E |-0---------------|-0-----0----------|
B |-0---------------|-0-----0----------|
F#|-3---------------|-10----9----------|
E |-2---------------|-9-----7----------| X3
B |-x---------------|-x-----x----------|
E |-2---------------|-9-----7----------|
    D--UDUD--UDUD-DU  D--UDUD--UDUD-DU

E |-----------------|-0--------0--------|
B |-----------------|-0--------0--------|
F#|-5---------------|-10-------9--------| 
E |-4---------------|-9--------7--------| 
B |-x---------------|-x--------x--------| 
E |-4---------------|-9--------7--------| 
    D--UDUD--UDUD-DU  D-D-D-DU D-D-D-DU  

E |-0-----0---------|     |-0--------0--------|
B |-0-----0---------|     |-0--------0--------|
F#|-5-----7---------| X2  |-7--------9--------|
E |-4-----5---------|     |-5--------7--------|
B |-x-----X---------|     |-x--------x--------|
E |-5-----5---------|     |-5--------7--------|
    D--UDUD--UDUD-DU        D-D-D-DU D-D-D-DU

[Break]
E |-----+12---0----------------|
B |-----+12---0----------------|
F#|-----+12-0-0----------------|
E |-----------0----------------|  X4
B |-----------x----------------|
E |-0---------5----------------|
    D--U-U D--U-UD-DU

[Bridge]

E |-0-0-0-0--------|-0--------0----------|
B |-5-7-9-12-------|-10-------5----------|
F#|-x-x-x-10-------|-10-------3----------| x2
E |-0-0-0-0--------|-0--------0----------|
B |-0-0-0-x--------|-x--------x----------|
E |-0-0-0-10-------|-9--------5----------|
    D-D-D-D--UDUDU   D--UDUDU D--UDUDUDU      

E |-0---------------|
B |-4/5-------------|
F#|-3---------------|
E |-0---------------|
B |-x---------------|
E |-5---------------|
    D--U-UD-U-UDUDU    

[Verse] SAME AS PREVIOUS

[Break] x2

[Chorus]
E |-0---------------|-0-----0----------|
B |-0---------------|-0-----0----------|
F#|-3---------------|-10----9----------|
E |-2---------------|-9-----7----------| X3
B |-x---------------|-x-----x----------|
E |-2---------------|-9-----7----------|
    D--UDUD--UDUD-DU  D--UDUD--UDUD-DU

E |-----------------|-0--------0--------|
B |-----------------|-0--------0--------|
F#|-5---------------|-10-------9--------| 
E |-4---------------|-9--------7--------| 
B |-x---------------|-x--------x--------| 
E |-4---------------|-9--------7--------| 
    D--UDUD--UDUD-DU  D-D-D-DU D-D-D-DU  

E |-0---------------|-0-----0----------|
B |-0---------------|-0-----0----------|
F#|-3---------------|-10----9----------|
E |-2---------------|-9-----7----------| X3
B |-x---------------|-x-----x----------|
E |-2---------------|-9-----7----------|
    D--UDUD--UDUD-DU  D--UDUD--UDUD-DU

E |-----------------|-0--------0--------|
B |-----------------|-0--------0--------|
F#|-5---------------|-10-------9--------| 
E |-4---------------|-9--------7--------| 
B |-x---------------|-x--------x--------| 
E |-4---------------|-9--------7--------| 
    D--UDUD--UDUD-DU  D-D-D-DU D-D-D-DU  

E |-0-----0---------|   
B |-0-----0---------|    
F#|-5-----7---------|    REPEAT TILL END 
E |-4-----5---------|     
B |-x-----X---------|     
E |-5-----5---------|    
    D--UDUD--UDUD-DU