Artist: Fleet Foxes, Title: Isles

DADGBD Resources

Create Chord Sheets Guitar Tuner Songs Videos Tuning Map

D

A

D

G

B

D

Fleet Foxes - Isles

[Intro]                       [Verse]
 
d|------|------|------|- -0---|0-----|0-----|0-----|0-0---|0-----|0-----|
B|------|------|------|- -----|------|------|------|------|------|------|
G|0-2-4-|5---4-|2-0---|- ---2-|--2---|--2---|--2---|----2-|--0---|--0---|
D|0-0-0-|0---0-|0-0-2-|2h4----|----0-|----0-|----0-|------|----0-|----0-|
A|------|------|------|- -----|------|------|------|------|3-----|3-----|
D|------|------|------|- -----|0-----|0-----|0-----|0-----|------|------|
 
d|0-----|0-----|0-----|0-----|0-----|0-----|0-----|0-----|------|------|
B|------|------|------|------|------|------|------|------|2-----|2-----|
G|--0---|--0---|--0---|--0---|--0---|--0---|--0---|--0---|--0---|--0---|
D|----0-|----0-|----0-|----0-|----0-|----0-|----0-|----0-|----0-|----0-|
A|3-----|3-----|2-----|2-----|2-----|2-----|1-----|1-----|0-----|0-----|
D|------|------|------|------|------|------|------|------|------|------|
 
d|2-----|2-----|4-----|4-----|0-0---|0-0---|0-0---|0-----|0-----|------|
B|--0---|--0---|--1---|--1---|----0-|----0-|----0-|--0---|--0---|2-----|
G|----2-|----2-|----2-|----2-|------|------|------|----0-|----0-|--2-0-|
D|------|------|------|------|------|------|------|------|------|------|
A|------|------|------|------|------|------|------|------|0-----|0-----|
D|0-----|0-----|0-----|0-----|5-----|5-----|5-----|5-----|------|------|
 
d|0-----|------|0-0---|------|0-0---|0-0---|
B|--0---|2-----|------|------|------|------|
G|----0-|--2---|----2-|----2-|----2-|----2-| Repeat from Verse
D|------|----2-|------|--0---|------|------|
A|0-----|0-----|------|3-----|------|------|
D|------|------|0-----|------|0-----|0-----|
 
[Chorus]
 
d|------|------|------|------|0-----|------|------|------|------|------|
B|------|------|------|------|------|------|------|------|7-5---|--0---|
G|------|------|------|------|--0---|--0---|--0---|------|----7-|6-----|
D|------|------|------|------|----0-|------|------|--0---|------|----7-|
A|------|------|------|--0---|------|------|------|----0-|------|------|
D|0-0-0-|0-0-0-|0-0-0-|0---0-|0---0-|0---0-|0---0-|0-----|5-5-5-|5-5-5-|
 
d|------|------|------|------|------|------|
B|0---5-|7-----|7-5---|--0---|0-----|0-----|
G|--7---|--0---|----7-|6-----|------|------| Repeat Verse and Chorus
D|------|----0-|------|----7-|--0---|--0---|
A|------|------|------|------|----0-|----0-|
D|5-5-5-|5-----|5-5-5-|5-5-5-|5-----|5-----|
 
[Instrumental]
 
d|------|------|------|------|------|------|------|------|0---7-|------|
B|0---7-|5-----|0---7-|5-----|0---7-|5-----|0-----|0-----|--0---|7---5-|
G|--0---|--0-7-|--0---|--0-7-|--0---|--0-7-|--0---|--0---|------|--0---|
D|------|------|------|------|------|------|----0-|----0-|------|------|
A|------|------|------|------|------|------|------|------|------|------|
D|5---5-|5---5-|5---5-|5---5-|5---5-|5---5-|5-----|5-----|5---5-|0---0-|
 
                                                         [Coda]
 
d|0---7-|------|0---7-|------|0---0-|0-0---|0-0---|0-0---|------|------|------|
B|--0---|7---5-|--0---|7---5-|------|------|------|------|------|------|------|
G|------|--0---|------|--0---|--0---|----0-|----0-|----0-|------|------|------|
D|------|------|------|------|---0--|------|------|------|------|------|------|
A|------|------|------|------|------|0-----|------|------|------|------|------|
D|5---5-|0---0-|5---5-|0---0-|0---0-|0-----|0-----|0-----|0-0-0-|0---0-|0-0-0-|
 
d|--0---|
B|--3---|
G|--2---|
D|--4---|
A|--0---|
D|0-0---|