Artist: Bob Dylan, Title: One too many mornings

EAC#EAC# Resources

Create Chord Sheets Guitar Tuner Songs Videos Tuning Map

E

A

C#

E

A

C#

Bob Dylan - One too many mornings

Open A   Standard
========================
C      000000
Cv     500500
Em/b   4004x0   x22010
F/a    20120x   x0321x
C/g    043000   3x5050
Csus4  053000   xx3010
C/e    x43000   xx2010
G9     021000   3x303x
  C                                   Cv                Em/b
  :   .   .   .     :   .   .   .     :   .   .   .     :   .   .   .
|-----------------|-----------------|-----------------|-----------------|
|-0---------0-----|-----------0-----|-----------------|-----0-----------|
|-----------------|-----------------|-----------5-----|-----------4-----|
|-----0-------0---|-----0-------0---|-----0-------0---|-----0-------0---|
|-0---------------|-0---------------|-----------------|-----------------|
|---------0-------|---------0-------|-5-------5-------|-4-------4-------|
                           Down the streets the dogs are barking and the
  F/a               C/g                                 C/g     Csus4
  :   .   .   .     :   .   .   .     :   .   .   .     :   .   .   .
|-----------------|---------------0-|-----------------|-----------------|
|-----------------|-----0-----------|-----------------|-----------------|
|-2---------2-----|-----------0-----|-----------0-----|-----------------|
|(1)--1-------1---|-----3-------3---|-----3-------3---|-----3-------3---|
|-----------------|-4---------------|-----------------|---------5-------|
|-2-------0-------|---------0-------|-0-------0-------|-0---------------|
 day  is  getting   dark                      As the   night comes in a- 
  C/e     C/g                         G9                C/g
  :   .   .   .     :   .   .   .     :   .   .   .     :   .   .   .
|-----------------|-----------------|-----------------|-----------------|
|-----0-----------|-----0-----------|-----0---------0-|-----0---------0-|
|-----------0-----|-----------0-----|-----------0-----|-----------0-----|
|-----3-------3---|-----3-------3---|-----1-------1---|/----3-------3---|
|-4---------------|-----------------|-2---------------|/4---------------|
|---------0-------|-0-------0-------|---------0-------|---------0-------|
 falling      the dogs will lose their bark
  G9                C                 Em/b              F/a
  :   .   .   .     :   .   .   .     :   .   .   .     :   .   .   .
|-----------------|-----------------|-----0-----------|-----------------|
|-----0-----------|-----------------|-----------------|-----------------|
|-----------0-----|-----5-----5-----|-----------4-----|-2---------2-----|
|\----1-------1---|-----0-------0---|-----0-------0---|-----1-------1---|
|\2---------------|-----------------|-----------------|-----------------|
|---------0-------|-5-------5-------|-4-------4-------|-2-------0-------|
          And the silent  night will shatter  from the sounds inside my 
  C/g                                 C/g     Csus4     C/g
  :   .   .   .     :   .   .   .     :   .   .   .     :   .   .   .
|---------------0-|-----------------|-----------------|-----------------|
|-----0-----------|-----------------|-----------------|-----0-----------|
|-----------0-----|-----------0-----|------------ ----|-----------0-----|
|-----3-------3---|-----3-------3---|-----3-------3---|-----3-------3---|
|-4---------------|-----------------|---------5-------|-4---------------|
|---------0-------|-0-------0-------|-0---------------|---------0-------|
 mind                       Cause I'm one too many     mornings    and a  
  G9                C/g     G9        C
  :   .   .   .     :   .   .   .     :   .   .   .     :   .   .   .
|-----------------|-----------------|-----------------|-----------------|
|-----0---------0-|-----0-----------|-----0-----------|-----0-----------|
|-----------0-----|-----------0-----|-----------0-----|-----------0-----|
|-----1-------1---|/----3-(\1)--1---|-----0-------0---|-----0-------0---|
|-2---------------|/4-----(\2)------|-0---------------|-----------------|
|---------0-------|---------0-------|---------0-------|-0-------0-------|
  thousand         miles        behind
[Harp verse:]
  C                 Em/b              F/a                C/g
  :   .   .   .     :   .   .   .     :   .   .   .      :   .   .   .
|-----------------|-----------------|-----------------|------------------|
|-----------------|-----0-----------|-----------------|------------------|
|-----------5-----|-----------4-----|-2---------2-----|------------0-----|
|-----0-------0---|-----0-------0---|(1)--1-------1---|(/3)--3-------3---|
|-----------------|-----------------|-----------------|-/4---------------|
|-5-------5-------|-4-------4-------|-2-------0-------|----------0-------| 
                                                        G9
  :   .   .   .     :   .   .   .     :   .   .   .     :   .   .   .
|----(0)----------|-----------------|-----------------|-----------------|
|-----------------|-----------------|-----------------|-----------------|
|-----------0-----|-----------0-----|-----------0-----|-----------0-----|
|-----3-------3---|-----3-------3---|-----3-------3---|-----1-------1---|
|-----------------|-----------------|-----------------|-2---------------|
|-0-------0-------|-0-------0-------|-0-------0-------|---------0-------|
                    C                 Em/b              F/a
  :   .   .   .     :   .   .   .     :   .   .   .     :   .   .   .
|-----------------|-----------------|-----------------|-----------------|
|-----------------|-----------------|-----0-----------|-----------------|
|-----------0-----|-----------5-----|-----------4-----|-2---------2-----|
|-----1-------1---|-----0-------0---|-----0-------0---|(1)--1-------1---|
|-2---------------|-----------------|-----------------|-----------------|
|---------0-------|-5-------5-------|-4-------4-------|-2-------0-------| 
   C/g                                 C/e     Csus4     C/e     C/g
   :   .   .   .     :   .   .   .     :   .   .   .     :   .   .   .
|------------------|-----------------|-----------------|-----------------|
|------------------|-----------------|-----0-------0---|-----0-----------|
|------------0-----|-----------0-----|-----0-------0---|-----0-----0-----|
|(/3)--3-------3---|-----3-------3---|-----3-------3---|-----3-------3---|
|-/4---------------|-----------------|-4-------5-------|-4---------------|
|----------0-------|-0-------0-------|-----------------|---------0-------|
  G9                C                 F/a               C
  :   .   .   .     :   .   .   .     :   .   .   .     :   .   .   .     :   .   .   .
|-----------------|-----------------|-----------------|-----------------|-----------------|
|-----------------|-----------------|-----------------|-----0-----------|-----0-----------|
|-----------0-----|-----------------|---0-------2-----|-----------0-----|-----------0-----|
|-----1-------1---|-----0-------0---|-----0h1-----1---|-(p0)0-------0---|-----0-------0---|
|-2---------------|-0---------------|-----------------|-----------------|-----------------|
|---------0-------|---------0-------|-2-------2-------|-0-------0-------|-0-------0-------|
         C                   Em/b
Down the street the dogs are barking
         F/a            C/g
And the day is a-getting dark.
       C/g         Csus4  C/e
As the night comes in a-fallin'
                             G9    C/g   G9
The dogs, they'll lose their bark.
    C                 Em/b
And the silent night will shatter
         F/a               C/g
From the sounds inside my mind
                Csus4  C/e
And I'm one too many mornings
      G9       C/g  G9 C
And a thousand miles behind.


From the crossroads of my doorstep,
My eyes start to fade.
And I turn my head back to the room
Where my love and I have laid.
And I gaze back to the street
the sidewalk and the sign.
And I'm one too many mornings
And a thousand miles behind.

It's a restless, hungry feeling
That don't mean no one no good.
When everything I'm saying,
You can say it just as good.
You are right from your side,
And I am right from mine.
We're both just one too many mornings
And a thousand miles behind.