Artist: Sleepy Dog, Title: Screamers

DAEAC#E Resources

Create Chord Sheets Guitar Tuner Songs Videos Tuning Map

D

A

E

A

C#

E

Sleepy Dog - Screamers

[Intro/Main Riff]
 
e |-5-p2-p0-----------------------------------------------------------------------*12---------|
C#|--------0-h3-p0----------------------------------------------------------------*12---------|
A |---------------4-h5-p4----t7-p0-h2-h4-t5\4-p0----------------------------------*12---------|
E |-----------------------h5r-------------------t5\4-p0-h4-p2-p0------------------------------|
A |-------------------------------------------------------------t5\4-p0-h2-h4-p0--------------|
D |-------------------------------------------------------------------------------------------|
 
e |-5-p2-p0-----------------------------------------------------------------------------*12---|
C#|--------0-h3-p0----------------------------------------------------------------------*12---|
A |---------------4-h5-p4----t7-p0-h2-h4-t5\4-p0----------------------------------------*12---|
E |-----------------------h5r-------------------t5\4-p0-h4-p2-p0------------------------*12---|
A |-------------------------------------------------------------t5\4-p0-h2-h4-p0-t5/12--------|
D |-------------------------------------------------------------------------------------------|
 
[Main Chord Shapes]
 
e |---0-0-0--0-0-0--0-0--x-x--------------------------------------------------|
C#|---0-0-0--0-0-0--0-0--x-x--------------------------------------------------|
A |---4-4-4--4-4-4--4-4--x-x--------------------------------------------------|
E |---2-2-2--0-0-0--0-0--x-x--------------------------------------------------|
A |---0-0-0--0-0-0--0-0--x-x--------------------------------------------------|
D |-0-0-0-0--2-2-2--4-4--x-x--------------------------------------------------|
 
[Play this before you do the main riff a second time]
 
e |---------------------------------------------------------------------------|
C#|---------------------------------------------------------------------------|
A |----7---5---4---2--0-------------------------------------------------------|
E |---0---0---0---0----0------------------------------------------------------|
A |--7---5---4---2------0-----------------------------------------------------|
D |----------------------0--9\1-p0--------------------------------------------|
 
| h   Hammer-on
| p   Pull-off
| r   Release
| t   Tapping
| /   Slide up
| \   Slide down
| x   percussive strum, I.E. dont play any notes (cover strings with hand)
| *   Harmonics