Artist: Haley Heynderickx, Title: The Bug Collector

EADGBE Resources

Create Chord Sheets Guitar Tuner Songs Videos Tuning Map

E

A

D

G

B

E

Haley Heynderickx - The Bug Collector

Capo in 5th for the acoustic solo version https://www.youtube.com/watch?v=fRz0KsK9MEc and in 6th for the album
version https://www.youtube.com/watch?v=w39qx5X_Owg.
Tab is transcribed from the solo version. The album version has a slightly different form but mostly involves
repeating measures already in the tab.
 
[Intro]
e|-----------------------------------------------|-------------------------|
B|-------0-----------0------------0------------0-|----------0------------0-|
G|---0---------0------------0------------0-------|----0------------0-------|
D|-----3----------3------------2------------2----|-------1------------1----|
A|-4--------4------------3------------3----------|-2------------2----------|
E|-----------------------------------------------|-------------------------|
 
e|-----------------------------------------------|-----------------------------------------------|
B|---------------0-----------------0-------0-----|---------------0-----------------0-----------0-|
G|------0-h2--------------2-h4-------------------|------0-h2--------------2-h4-----------4-------|
D|------0-----------0-----------0----------0-----|------0-----------0-----------0-----------0----|
A|-----------------------------------------------|-----------------------------------------------|
E|-0----------0-----------0-----------0----------|-0----------0-----------0-----------0----------|
 
e|--------------------------------------------------|-------------------------|
B|----------------0------------------0------------0-|----------0------------0-|
G|------0------------0---------0------------0-------|----0------------0-------|
D|---------3------------3---------2------------2----|-------1------------1----|
A|-4-----------4------------3------------3----------|-2------------2----------|
E|--------------------------------------------------|-------------------------|
 
e|-----------------------------------------------|-----------------------------------------------|
B|---------------0-----------------0-------0-----|---------------0-----------------0-------------|
G|------0-h2--------------2-h4-------------------|------0-h2--------------2-h4-------------------|
D|------0-----------0-----------0----------0-----|------0-----------0-----------0----------0-----|
A|-----------------------------------------------|-----------------------------------------------|
E|-0----------0-----------0-----------0----------|-0----------0-----------0-----------0----------|
 
 
[Verse 1]
e|-----------------------------------------------|------------------------|
B|-------------------0------------0------------0-|---------0------------0-|
G|------0------0------------0------------0-------|----------------0-------|
D|----------------3------------2------------2----|------1------------1----|
A|-4--------4------------3------------3----------|-2-----------2----------|
E|-----------------------------------------------|------------------------|
 
e|--------------------------------------------------|-------------------------------------------------|
B|----------------0-----------------0--------0------|----------------0-----------------0--------0-----|
G|------0-h2---------------2-h4---------------------|------0-h2---------------2-h4--------------------|
D|------0------------0-----------0-----------0------|------0------------0-----------0-----------0-----|
A|--------------------------------------------------|-------------------------------------------------|
E|-0-----------0-----------0------------0-----------|-0-----------0-----------0------------0----------|
 
e|-----------------------------------------------|-------------------------|
B|-------------------0------------0------------0-|----------0------------0-|
G|------0------0------------0------------0-------|----0------------0-------|
D|----------------3------------2------------2----|-------1------------1----|
A|-4--------4------------3------------3----------|-2------------2----------|
E|-----------------------------------------------|-------------------------|
 
e|-------------------------------------------------|-------------------------------------------------|
B|----------------0-----------------0--------0-----|----------------0-----------------0--------0-----|
G|------0--2---------------2-h4--------------------|------0--2---------------2-h4--------------------|
D|------0------------0-----------0-----------0-----|------0------------0-----------0-----------0-----|
A|-------------------------------------------------|-------------------------------------------------|
E|-0-----------0-----------0------------0----------|-0-----------0-----------0------------0----------|
 
 
[Chorus]
e|--------------------------------------------------|-------------------------------------------------|
B|-----------------0---------0--------------0-------|------0---------------0-----------0------------0-|
G|----------0------------0-----------0------------0-|----------------0------------0------------0------|
D|-------2------------2-----------2------------2----|------2------------2-----------2------------0----|
A|--------------------------------------------------|-------------------------------------------------|
E|-0-h2---------2------------2-----------2----------|-2-----------------------2------------2----------|
 
e|-----------------------------------------------|----------------------------------------------|
B|------0--------0----------------0--------------|--------------------------------0-------------|
G|------------------0-----2--------------2-------|-0-------2--------0--------------------0------|
D|------0-----------0----------0------------0----|------0-----------0-----0----0------------0---|
A|-----------------------------------------------|----------------------------------------------|
E|-0----------0-----------0-----------0----------|-0-----------0----------0-----------0---------|
 
e|--------------------------------------------------|----------------------------------------------|
B|-----------------0---------0--------------0-------|------0----------0----------0-----------------|
G|----------0------------0-----------0------------0-|-------------------------------------0--------|
D|-------2------------2-----------2------------2----|------2----------2----------2-----------0-----|
A|--------------------------------------------------|----------------------------------------------|
E|-0-h2---------2------------2-----------2----------|-2----------2----------2----------2-----------|
 
e|-----------------------------------------------|----------------------------------------------|
B|------0--------0----------------0--------------|--------------------------------0-------------|
G|------------------0-----2--------------2-------|-0-------2--------0--------------------0------|
D|------0-----------0----------0------------0----|------0-----------0-----0----0------------0---|
A|-----------------------------------------------|----------------------------------------------|
E|-0----------0-----------0-----------0----------|-0-----------0----------0-----------0---------|
 
e|-----------------------------------------------|------------------------------------------|
B|-8----------------------7----------------------|-5-------7--------5-----0-----------------|
G|---------------0----------------------0--------|-----------------------------------0------|
D|------0-----------0----------0-----------0-----|------0-----------0----------0----------0-|
A|-----------------------------------------------|------------------------------------------|
E|-0----------0-----------0----------0-----------|-0-----------0----------0----------0------|
 
e|-------------------------------------------------|------------------------|
B|-8--------------8---------7--------------7-------|-5-------7--------0-----|
G|---------0------------0-----------0------------0-|------------------------|
D|------0------------0-----------0------------0----|------0-----------0-----|
A|-------------------------------------------------|------------------------|
E|-0-----------0------------0-----------0----------|-0-----------0----------|
 
e|--------------------------------------------------|------------------------------------------------|
B|-----------------0---------0--------------0-------|-------0-----------------0----------------------|
G|----------0------------0-----------0------------0-|----------------0----------------0--------------|
D|-------2------------2-----------2------------2----|-------2-----------2----------2-----------0-----|
A|--------------------------------------------------|------------------------------------------------|
E|-0-h2---------2------------2-----------2----------|-0-h2--------2-----------2-----------2----------|
 
[Verse 2]
e|-----------------------------------------------|------------------------|
B|--------------------------------0------------0-|---------0------------0-|
G|------0--------0-----------------------0-------|----------------0-------|
D|------------------3----------2------------2----|------1------------1----|
A|-4----------4-----------3-----------3----------|-2-----------2----------|
E|-----------------------------------------------|------------------------|
 
e|--------------------------------------------------|-------------------------------------------------|
B|----------------0-----------------0--------0------|----------------0-----------------0--------0-----|
G|------0-h2---------------2-h4---------------------|------0-h2---------------2-h4--------------------|
D|------0------------0-----------0-----------0------|------0------------0-----------0-----------0-----|
A|--------------------------------------------------|-------------------------------------------------|
E|-0-----------0-----------0------------0-----------|-0-----------0-----------0------------0----------|
 
e|-----------------------------------------------|-------------------------|
B|-------------------0------------0------------0-|----------0------------0-|
G|------0------0------------0------------0-------|----0------------0-------|
D|----------------3------------2------------2----|-------1------------1----|
A|-4--------4------------3------------3----------|-2------------2----------|
E|-----------------------------------------------|-------------------------|
 
e|--------------------------------------------------|-------------------------------------------------|
B|----------------0-----------------0--------0------|----------------0-----------------0--------0-----|
G|------0-h2---------------2-h4---------------------|------0-h2---------------2-h4--------------------|
D|------0------------0-----------0-----------0------|------0------------0-----------0-----------0-----|
A|--------------------------------------------------|-------------------------------------------------|
E|-0-----------0-----------0------------0-----------|-0-----------0-----------0------------0----------|
 
e|--------------------------------------------------|--------------------------------------------------|
B|-----------------0---------0--------------0-------|------0--------------0------------0---------------|
G|----------0------------0-----------0------------0-|---------------0------------0------------0--------|
D|-------2------------2-----------2------------2----|------2-----------2------------2------------0-----|
A|--------------------------------------------------|--------------------------------------------------|
E|-0-h2---------2------------2-----------2----------|-2-----------------------2------------2-----------|
 
e|-----------------------------------------------|----------------------------------------------|
B|------0--------0----------------0--------------|--------------------------------0-------------|
G|------------------0-----2--------------2-------|-0-------2--------0--------------------0------|
D|------0-----------0----------0------------0----|------0-----------0-----0----0------------0---|
A|-----------------------------------------------|----------------------------------------------|
E|-0----------0-----------0-----------0----------|-0-----------0----------0-----------0---------|
 
e|--------------------------------------------------|--------------------------------------------------|
B|-----------------0---------0--------------0-------|------0--------------0------------0---------------|
G|----------0------------0-----------0------------0-|---------------0------------0------------0--------|
D|-------2------------2-----------2------------2----|------2-----------2------------2------------0-----|
A|--------------------------------------------------|--------------------------------------------------|
E|-0-h2---------2------------2-----------2----------|-2----------2-------------2------------2----------|
 
e|-----------------------------------------------|----------------------------------------------|
B|------0--------0----------------0--------------|--------------------------------0-------------|
G|------------------0-----2--------------2-------|-0-------2--------0--------------------0------|
D|------0-----------0----------0------------0----|------0-----------0-----0----0------------0---|
A|-----------------------------------------------|----------------------------------------------|
E|-0----------0-----------0-----------0----------|-0-----------0----------0-----------0---------|
 
e|------------------------------------------------|----------------------------------------------|
B|-8-------------------8---7----------------------|-5-------7--------5-----0---------------------|
G|---------------0-----------------------0--------|-----------------------------------0----------|
D|------0-----------0-----------0-----------0-----|------0-----------0----------0----------0-----|
A|------------------------------------------------|----------------------------------------------|
E|-0----------0------------0----------0-----------|-0-----------0----------0----------0----------|
 
e|-------------------------------------------------|------------------------|
B|-8--------------8---------7--------------7-------|-5-------7--------0-----|
G|---------0------------0-----------0------------0-|------------------------|
D|------0------------0-----------0------------0----|------0-----------0-----|
A|-------------------------------------------------|------------------------|
E|-0-----------0------------0-----------0----------|-0-----------0----------|
 
e|--------------------------------------------------|------------------------------------------------|
B|-----------------0---------0--------------0-------|-------0-----------------0--------------------0-|
G|----------0------------0-----------0------------0-|----------------0----------------0------0-------|
D|-------2------------2-----------2------------2----|-------2-----------2----------2------------0----|
A|--------------------------------------------------|------------------------------------------------|
E|-0-h2---------2------------2-----------2----------|-0-h2--------2-----------2-----------0----------|
 
e|------------------------------------------------|-----------------------------------------------|
B|-------0--------0--------0--------------------0-|------0-----------------0----------------------|
G|---------------------------------0------0-------|---------------0----------------0--------------|
D|-------2-----------2----------2------------0----|------2-----------2----------2-----------0-----|
A|------------------------------------------------|-----------------------------------------------|
E|-0-h2--------2-----------2-----------0----------|-2----------2-----------2-----------2----------|
 
[Verse 3]
e|------------------------------------------------|-------------------------|
B|----------------------------------------------0-|----------0------------0-|
G|------0--------0-----0--------0---------0-------|----0------------0-------|
D|------------------3--------------2---------2----|-------1------------1----|
A|-4----------4------------3-----------3----------|-2------------2----------|
E|------------------------------------------------|-------------------------|
 
e|--------------------------------------------------|--------------------------------------------------|
B|----------------0-----------------0--------0------|----------------0-----------------0---------------|
G|------0-h2---------------2-h4---------------------|------0--2---------------2-h4---------------4-----|
D|------0------------0-----------0-----------0------|------0------------0-----------0---------0--------|
A|--------------------------------------------------|--------------------------------------------------|
E|-0-----------0-----------0------------0-----------|-0-----------0-----------0------------0-----------|
 
e|-----------------------------------------------|-------------------------|
B|-------------------0-------------------0-------|----------0------------0-|
G|------0------0--------------0----------------0-|----0------------0-------|
D|----------------3--------------2----------2----|-------1------------1----|
A|-4--------4------------3-----------3-----------|-2------------2----------|
E|-----------------------------------------------|-------------------------|
 
e|--------------------------------------------------|--------------------------------------------------|
B|----------------0-----------------0--------0------|----------------0-----------------0---------------|
G|------0-h2---------------2-h4---------------------|------0--2---------------2-h4---------------4-----|
D|------0------------0-----------0-----------0------|------0------------0-----------0---------0--------|
A|--------------------------------------------------|--------------------------------------------------|
E|-0-----------0-----------0------------0-----------|-0-----------0-----------0------------0-----------|
 
e|--------------------------------------------------|--------------------------------------------------|
B|-----------------0---------0--------------0-------|------0--------------0------------0---------------|
G|----------0------------0-----------0------------0-|---------------0------------0------------0--------|
D|-------2------------2-----------2------------2----|------2-----------2------------2------------0-----|
A|--------------------------------------------------|--------------------------------------------------|
E|-0-h2---------2------------2-----------2----------|-2----------2-------------2------------2----------|
 
e|-------------------------------------------------|------------------------------------------------|
B|------0--------0----------------0----------------|--------------------------------0---------------|
G|-4----------------0-----2--------------2---------|-0-------2--------0--------------------0--------|
D|------0-----------0----------0-------------------|------0-----------0-----0----0------------0-----|
A|------------------------------------------0------|------------------------------------------------|
E|-0----------0-----------0-----------0------------|-0-----------0----------0-----------0-----------|
 
e|--------------------------------------------------|--------------------------------------------------|
B|-----------------0---------0--------------0-------|------0--------------0------------0---------------|
G|----------0------------0-----------0------------0-|---------------0------------0------------0--------|
D|-------2------------2-----------2------------2----|------2-----------2------------2------------0-----|
A|--------------------------------------------------|--------------------------------------------------|
E|-0-h2---------2------------2-----------2----------|-2----------2-------------2------------2----------|
 
e|-------------------------------------------------|----------------------------------------------|
B|-8--------------8---------7--------------7-------|-5-------7--------5-----0---------------------|
G|---------0------------0-----------0------------0-|-----------------------------------0----------|
D|------0------------0-----------0------------0----|------0-----------0----------0----------0-----|
A|-------------------------------------------------|----------------------------------------------|
E|-0-----------0------------0-----------0----------|-0-----------0----------0----------0----------|
 
e|-------------------------------------------------|------------------------|
B|-8--------------8---------7--------------7-------|-5-------7--------0-----|
G|---------0------------0-----------0------------0-|------------------------|
D|------0------------0-----------0------------0----|------0-----------0-----|
A|-------------------------------------------------|------------------------|
E|-0-----------0------------0-----------0----------|-0-----------0----------|
 
e|--------------------------------------------------|------------------------------------------------|
B|-----------------0---------0--------------0-------|-------0-----------------0----------------------|
G|----------0------------0-----------0------------0-|----------------0----------------0--------------|
D|-------2------------2-----------2------------2----|-------2-----------2----------2-----------0-----|
A|--------------------------------------------------|------------------------------------------------|
E|-0-h2---------2------------2-----------2----------|-0-h2--------2-----------2-----------2----------|
 
e|-------------------------------------------------|----------------------------------------------|
B|-8--------------8---------7--------------7-------|-5-------7--------5-----0---------------------|
G|---------0------------0-----------0------------0-|-----------------------------------0----------|
D|------0------------0-----------0------------0----|------0-----------0----------0----------0-----|
A|-------------------------------------------------|----------------------------------------------|
E|-0-----------0------------0-----------0----------|-0-----------0----------0----------0----------|
 
e|-------------------------------------------------|------------------------|
B|-8--------------8---------7--------------7-------|-5-------7--------0-----|
G|---------0------------0-----------0------------0-|------------------------|
D|------0------------0-----------0------------0----|------0-----------0-----|
A|-------------------------------------------------|------------------------|
E|-0-----------0------------0-----------0----------|-0-----------0----------|
 
e|------------------------------------------------|------------------------------------------------|
B|-0--------------0--------0--------------0-------|-------0-----------------0----------------------|
G|---------0------------0----------0------------0-|----------------0----------------0--------------|
D|------2------------2----------2------------2----|-------2-----------2----------2-----------0-----|
A|------------------------------------------------|------------------------------------------------|
E|-2-----------2-----------2-----------2----------|-0-h2--------2-----------2-----------0----------|
 
e|-----------------------------------------------|-----------------------------------------------|
B|------0-----------------0--------------0-------|------0-----------------0--------------0-------|
G|---------------0----------------0------------0-|---------------0----------------0------------0-|
D|------2-----------2----------2------------2----|------2-----------2----------2------------2----|
A|-----------------------------------------------|-----------------------------------------------|
E|-2----------2-----------2-----------2----------|-2----------2-----------2-----------2----------|
 
e|-----------------------------------------------|
B|-0---------------------------------------------|
G|-0---------------------------------------------|
D|-0---------------------------------------------|
A|-----------------------------------------------|
E|-0---------------------------------------------|
 
************************************
 
| h   Hammer-on
 
************************************