Artist: The Tallest Man On Earth, Title: Ill Be A Sky

DADF#AD Resources

Create Chord Sheets Guitar Tuner Songs Videos Tuning Map

D

A

D

F#

A

D

The Tallest Man On Earth - Ill Be A Sky

I’LL BE A SKY – THE TALLEST MAN ON EARTH   -   OPEN D CAPO 4

INTRO   -   VERSE 1   -   CHORUS   -   POST-CHORUS

VERSE 2   -   CHORUS   -   BRIDGE

VERSE 3   -   CHORUS   -   POST-CHORUS/OUTRO

[Intro]

d |------------------|
A |------------------|
F#|-0--1--3------1---|
D |-0--2--4--5---2---|
A |------------------|
D |------------------|
 
d |---------------------------------|---------------------------------|
A |-----------0---------------0-----|-----------0---------------------|
F#|-------0-------0-------0-------0-|-------0-------0-------1-----0---|
D |-----0-------0-------0-------0---|-----0-------0-------0-0-----0---|
A |'0'------------------------------|----------------'4'--(/2)--------|
D |-0-------0-------0-------0-------|-0-------0-------0---------------|
 
d |---------------------------------|-----------0-------------------0-|
A |-----------0---------------------|-------0----------------------0--|
F#|-------0-------0-----0-----------|-----1---------1-------1-----0---|
D |-----0-------0---------------0---|-----2-------2-------2---4-------|
A |-----------------0-----2---------|---------------------------------|
D |-0-------0-----------------------|-2-------2-------2---------------|
 
d |-------0-------0-------0-------0-|-----------0---------------------|
A |------0-------0-------0-------0--|-------0-------------------------|
F#|-----0-------0-------0-------0---|-----1---------1-----------------|
D |-5-------4---------------4-------|-----2-------2-------2/3-----2---|
A |-----------------2---------------|---------------------------------|
D |---------------------------------|-2-------2-------2---------------|
 
d |---------------------------------|---------------------------------|
A |-----------0-----------0---------|-----------0---------------------|
F#|-------0-------0-------1-----0---|-------0-------------0-----0-0-0-|
D |-----0-------0-------0-0-----0---|-----0-----------0---0-----0-0-0-|
A |----------------'4'--(/2)--------|-------------2-------------------|
D |-0-------0-------0---------------|-0-------0-----------------------|
  
[Verse]

d |---------------------------------|-----------0---------------0-----|
A |-----------0---------------0-----|-------0---------------0---------|
F#|-------0-------0-------0-------0-|-----1---------1-----1---------1-|
D |-----0-------0-------0-------0---|-----2-------2-------2-------2---|
A |---------------------------------|---------------------------------|
D |-0-------0-------0-------0-------|-0-------0-------0-------0-------|
 
d |-----------0---------------0-----|---------------------------0-----|
A |-------0---------------0---------|-----------0-----------0h4-------|
F#|-----1---------1-----1---------1-|-------1-------------3-----------|
D |-----2-------2-------2-------2---|-----2-------2-------2-------2---|
A |---------------------------------|-----------------0-------0-------|
D |-2-------2-------2-------2-------|-0-------0-----------------------| x2
 
d |---------------------------------|---------------------------------|
A |-----------0---------------0-----|-----------2---------------2-----|
F#|-------0-------0-------0-------0-|-------1-------1-------1-------1-|
D |-----0-------0-------0-------0---|-----0-------0-------0-------0---|
A |---------------------------------|---------------------------------|
D |-0-------0-------0-------0-------|-0-------0-------0-------0-------|
 
d |-----------0---------------0-----|---------------------------------|
A |---------------------------------|-----------0---------------2-----|
F#|-------3-------3-------3-------3-|-------0-------0-------1-------1-|
D |-----2-------2-------2-------2---|-----0-------0-------0-------0---|
A |-0-------0-------0-------0-------|-----------------2-------2-------|
D |---------------------------------|-0-------0-----------------------| x2
 
d |-----------0---------------0-----|-----------0---------------0-----|
A |-----------------------4---------|---------------------------------|
F#|-------3-------3-----3---------3-|-------3-------3-------3-------3-|
D |-----2-------2-------2-------2---|-----2-------2-------2-------2---|
A |-0-------0-------0-------0-------|-0-------0-------0-------0-------|
D |---------------------------------|---------------------------------|
 
 







[Chorus]

d |---------------------------------|-----------0---------------0-----|
A |-----------2---------------0-----|---------------------------------|
F#|-------1-------1-------1---------|-------3-------3-------3-------3-|
D |-----0-------0-------2-------2---|-----2-------2-------2-------2---|
A |---------------------------------|-0-------0-------0-------0-------|
D |-0-------0-------2-------2-------|---------------------------------|
 
d |---------------------------------|-----------------|
A |-----------2---------------0-----|-----------------|
F#|-------1-------1-------1---------|-----------------|
D |-----0-------0-------2-------2---|-----------------|
A |---------------------------------|-0---------------|
D |-0-------0-------2-------2-------|-----------------|
 
[Post-Chorus]

d |---------------------------------|
A |-----------0---------------------|
F#|-------0---------3-----1---0-----|
D |-----0-------0---0-----0---0-----|
A |-----------------4-----2---0-----|
D |-0-------0-------0-----0---0-----|
 
d |---------------------------------|-----------0-------------------0-|
A |-----------0---------------------|-------0---------------0------0--|
F#|-------0-------0-----0-----------|-----1---------1------0------0---|
D |-----0-------0---------------0---|-----2-------2-------0---4-------|
A |-----------------0-----2---------|---------------------------------|
D |-0-------0-----------------------|-2-------2-------2---------------|
 
d |-------0-------0-------0-------0-|-----------0---------------------|
A |------0-------0-------0-------0--|-------0-------------------------|
F#|-----0-------0-------0-------0---|-----1---------1-----1-----------|
D |-5-------4---------------4-------|-----2-------2-------2/3-----2---|
A |-----------------2---------------|---------------------------------|
D |---------------------------------|-2-------2-------2---------------|
 
d |---------------------------------|---------------------------------|
A |-----------0-----------0---------|-----------0---------------------|
F#|-------0-------0-------1-----0---|-------0-------------0-----0-0-0-|
D |-----0-------0-------0-0-----0---|-----0-----------0---0-----0-0-0-|
A |----------------'4'--(/2)--------|-------------2-------------------|
D |-0-------0-------0---------------|-0-------0-----------------------|
[Verse 2]
[Chorus]
[Bridge]

d |---------------------------------|---------------------------------|
A |-----------0---------------------|-----------0-----0---------------|
F#|-------0---------3-----1---0-----|-------0---------0-----0---------|
D |-----0-------0---0-----0---0-----|-----0-------0---0-----0---------|
A |-----------------4-----2---0-----|---------------------------------|
D |-0-------0-------0-----0---0-----|-0-------0-------0-----2-----0---|
 
d |---------------------------------|---------------------------------|
A |-----------0---------------0-----|-----------0---------------0-----|
F#|-------0-------0-------0-------0-|-------0-------0-------1-------1-|
D |-----4-------4-------4-------4---|-----0-------0-------0-------0---|
A |---------------------------------|-2-------2-------0-------0-------|
D |/4-------4-------4-------4-------|---------------------------------|
 
d |---------------------------------|---------------------------------|
A |-----------2---------------2-----|-----------0-----0---------------|
F#|-------1---------------1-------1-|-------0---------0-----0---------|
D |-----0-------0-------0-------0---|-----0-------0---0-----0---------|
A |'2'------------------------------|---------------------------------|
D |-0-------0-------0-------0-------|-0-------0-------0-----2-----0---|
 
d |---------------------------------|---------------------------------|
A |-----------0---------------0-----|-----------0---------------0-----|
F#|-------0-------0-------0-------0-|-------0-------0-------1-------1-|
D |-----4-------4-------4-------4---|-----0-------0-------0-------0---|
A |---------------------------------|-2-------2-------0-------0-------|
D |/4-------4-------4-------4-------|---------------------------------|
 
d |---------------------------------|---------------------------------|
A |-----------2---------------2-----|-----------0---------------2-----|
F#|-------1---------------1-------1-|-------1-------1-------1-------1-|
D |-----0-------0-------0-------0---|-----2-------2-------2-------2---|
A |'2'------------------------------|---------------------------------|
D |-0-------0-------0-------0-------|-2-------2-------2-------2-------|
 
d |-----------0---------------0-----|
A |-----------------------4---------|
F#|-------3-------3-----3---------3-|
D |-----2-------2-------2-------2---|
A |-0-------0-------0-------0-------|
D |---------------------------------|
[Verse 3]
[Chorus]
[Post-Chorus/OUTRO]
 
d |---------------------------------|
A |-----------0---------------------|
F#|-------0---------3-----1---0-----|
D |-----0-------0---0-----0---0-----|
A |-----------------4-----2---0-----|
D |-0-------0-------0-----0---0-----|
 
d |---------------------------------|-----------0-------------------0-|
A |-----------0---------------------|-------0---------------0------0--|
F#|-------0-------0-----0-----------|-----1---------1------0------0---|
D |-----0-------0---------------0---|-----2-------2-------0---4-------|
A |-----------------0-----2---------|---------------------------------|
D |-0-------0-----------------------|-2-------2-------2---------------|
 
d |-------0-------0-------0-------0-|-----------0---------------------|
A |------0-------0-------0-------0--|-------0-------------------------|
F#|-----0-------0-------0-------0---|-----1---------1-----1-----------|
D |-5-------4---------------4-------|-----2-------2-------2/3-----2---|
A |-----------------2---------------|---------------------------------|
D |---------------------------------|-2-------2-------2---------------|  x2
 
d |---------------------------------|-----------|
A |-----------0-----------0---------|-----------|
F#|-------0-------0-------1-----0---|-----------|
D |-----0-------0-------0-0-----0---|-----0-----|
A |----------------'4'--(/2)--------|-----0-----|
D |-0-------0-------0---------------|-0---0-----|