Artist: Antoine Dufour, Title: Ashes in the sea - DAEFCE

D
A
E
F
C
E

Antoine Dufour - Ashes in the sea

E-----------------[7]---------------------[5]------
C---------------------[7]-------------[5]---[5]---
F--------------------------[7]-----[5]-------------
E-------------------------------[5]----------------
A----3/5/8/7-------------------------------------
D-0-----------0-----------------------------------


Harmonics
------------------------------------------(7)-----------------------------(5)----------------------------
-----------------------------------------------(7)------------------(5)----------------------------------
-------------------------0---------------------------(7)---------(5)-----------------------------------0-
-----------------------------0----------------------------x-(5)------------------(7)--------------------0
------x----0----3/5--------------------------------------------------------------------x---0---3/5----
-----------------------------------0-----------------------------------------------------------------------


----------------------------------------------------------(7)-------------------------------------
------------------------------(12)------------------(7)------------------------------------------
--------(12)-----------------------(12)-------(7)-------------------------------0--------------
---------------(12)----------------------(7)-----------------------------------------0-----------
-----------------------------------------------------------------x----0---3/5--------------------
--0-------------------(12)----------------------------------------------------------------0------


---(7)-------------------------------(5)------------------------------
--------(7)---------------------(5)-----------------------------------
-------------(7)-----------(5)----------------------------------0-----
-------------------x--(5)-----------------(7)----------------------0-- (Tap Body until verse)
--------------------------------------------------x---0---3/5--------- 
------------------------------------------------------------------------