Artist: The Devil Wears Prada, Title: Born To Lose - BF#BEG#C#

Card image

B

Card image

F#

Card image

B

Card image

E

Card image

G#

Card image

C#

The Devil Wears Prada - Born To Lose

Tabbed by: smallen
Email: allensam83@yahoo.com

Tuning: B,F#,B,E,G#,C#

I tabbed the song how i play it.
This is my first ever tab. Great band, easy song to play but really fun.
Please tell me how did, id appreciate feedback. Please rate. :)
update
after listening and playing this song some more I've noticed some small
things, so i made some changes, so hopefully its more accurate.
decided to add rhythm guitar and tweak a few things. 
thanku to rauschkuh for sending the link to the official way to play the 
intro riff :)
Lead
Intro
|--------------------------------------------------------------|
|--------------------------------------------------------------|
|--------------------------------------7b--------7b------------|
|-----------------------------------------------------5-8-7-4--|
|-0000-------0000-------1---1/6---5b--------5b-----------------|
|-0000-0-0-0-0000-0-0-0---0-----0----0----0----0----0----------|
  .... .   . .... .   .   .     .    .    .    .    .

|---------------------------------------------------------------------------|
|---------------------------------------------------------------------------|
|--------------------------------------11b---------11b----------------------|
|--------------------------------------------------------9-12-11-8-7-8------|
|-0000-------0000-------1---1/6---9b----------9b-----------------------10-9-|
|-0000-0-0-0-0000-0-0-0---0-----0----0-----0-----0-----0--------------------|
  .... .   . .... .   .   .     .    .     .     .     .


verse 1 x2
|---------------------------------------------------------------|
|---------------------------------------------------------------|
|---------------------------------------------------------------|
|--------5--------------------------5---------------8----8------|
|-0000-9---9-0-0-0000-0000---0000-9---9-0-0-0000-12---12---12---|
|-0000-------0-0-0000-0000---0000-------0-0-0000----------------|
  ....       . . .... ....   ....       . . ....

verse 2
|-------------------------------------------------------------------|
|-------------------------------------------------------------------|
|-------------------------------------------------------------------|
|-5---------------5-----5---5---6-5---------------1-----1---3---5-6-|
|-5-0-0-0---0-0-0-5-0-0-5-0-5-0-6-5-0-0-0---0-0-0-1-0-0-1-0-3-0-5-6-|
|---0-0-0---0-0-0---0-0---0---0-----0-0-0---0-0-0---0-0---0---0-----|
    . . .   . . .   . .   .   .     . . .   . . .   . .   .   .

|-------------------------------------------------------------------|
|-------------------------------------------------------------------|
|-------------------------------------------------------------------|
|-5---------------5-----5---5---6-5---------------1-----1---3---5---|
|-5-0-0-0---0-0-0-5-0-0-5-0-5-0-6-5-0-0-0---0-0-0-1-0-0-1-0-3-0-5---|
|---0-0-0---0-0-0---0-0---0---0-----0-0-0---0-0-0---0-0---0---0-----|
    . . .   . . .   . .   .   .     . . .   . . .   . .   .   .

breakdown 1 
|--------------------------------------------------------|
|--------------------------------------------------------|
|------------------------------------------------7b------|
|--------------------------------------------------------|
|-----3-000-----3-000-000-000-----3-000-000-5b--------5--|
|-1-3---000-1-3---000-000-000-1-3---000-000----0----0----|
        ...       ... ... ...       ... ...    .    .

|---------------------------------------------------------|
|---------------------------------------------------------|
|------------------------------------------------11b------|
|---------------------------------------------------------|
|-----3-000-----3-000-000-000-----3-000-000-9b---------9--|
|-1-3---000-1-3---000-000-000-1-3---000-000----0-----0----|
        ...       ... ... ...       ... ...    .    .


chorus x6
|---------------------------------------------------10--------|
|------------------------------------10h12-------13-----------|
|--10-9-7-7-10-9-7-7-5h7-7--10-9-7-7-------13----------12-----|
|---------------------------------------------12----------14--|
|-------------------------------------------------------------|
|-------------------------------------------------------------|

bridge
|--------------------------------|
|--------------------------------|
|--------------------------------|
|--------------------------------|
|-0000-------0000-------1---1/6--|
|-0000-0-0-0-0000-0-0-0---0------|
  .... .   . .... .   .   .

verse 3
|--------------------------------------------------------------|
|--------------------------------------------------------------|
|--------------------------------------7b--------7b------------|
|-----------------------------------------------------5-8-7-4--|
|-0000-------0000-------1---1/6---5b--------5b-----------------|
|-0000-0-0-0-0000---------0-----0----0----0----0----0----------|
  .... .   . ....         .     .    .    .    .    .

|---------------------------------------------------------------------------|
|---------------------------------------------------------------------------|
|--------------------------------------11b---------11b----------------------|
|--------------------------------------------------------9-12-11-8-7-8------|
|-0000-------0000-------1---1/6---9b----------9b-----------------------10-9-|
|-0000-------0000-0-0-0---0-----0----0-----0-----0-----0--------------------|
  ....       .... .   .   .     .    .     .     .     .


guitar break

verse 2
|---------------------------------------------------------------------|
|---------------------------------------------------------------------|
|---------------------------------------------------------------------|
|-x-5---------------5-----5---5---6-5---------------1-----1---3---5-6-|
|-x-5-0-0-0---0-0-0-5-0-0-5-0-5-0-6-5-0-0-0---0-0-0-1-0-0-1-0-3-0-5-6-|
|-x---0-0-0---0-0-0---0-0---0---0-----0-0-0---0-0-0---0-0---0---0-----|
  ^   . . .   . . .   . .   .   .     . . .   . . .   . .   .   .
pick slide 
|-------------------------------------------------------------------|
|-------------------------------------------------------------------|
|-------------------------------------------------------------------|
|-5---------------5-----5---5---6-5---------------1-----1---3---5---|
|-5-0-0-0-0-0-0-0-5-0-0-5-0-5-0-6-5-0-0-0-0-0-0-0-1-0-0-1-0-3-0-5---|
|---0-0-0-0-0-0-0---0-0---0---0-----0-0-0-0-0-0-0---0-0---0---0-----|
    . . . . . . .   . .   .   .     . . . . . . .   . .   .   .
breakdown 1 
|--------------------------------------------------------|
|--------------------------------------------------------|
|------------------------------------------------7b------|
|--------------------------------------------------------|
|-----3-000-----3-000-000-000-----3-000-000-5b--------5--|
|-1-3---000-1-3---000-000-000-1-3---000-000----0----0----|
        ...       ... ... ...       ... ...    .    .

|---------------------------------------------------------|
|---------------------------------------------------------|
|------------------------------------------------11b------|
|---------------------------------------------------------|
|-----3-000-----3-000-000-000-----3-000-000-9b---------9--|
|-1-3---000-1-3---000-000-000-1-3---000-000----0-----0----|
        ...       ... ... ...       ... ...    .    .

chorus x6
|---------------------------------------------------10--------|
|------------------------------------10h12-------13-----------|
|--10-9-7-7-10-9-7-7-5h7-7--10-9-7-7-------13----------12-----|
|---------------------------------------------12----------14--|
|-------------------------------------------------------------|
|-------------------------------------------------------------|

breakdown 2
pretty much all just open palm muted chords not to hard to work out but hard to tab out 
so do the math.

Rhythm 
Intro
|--------------------------------------------------------------|
|--------------------------------------------------------------|
|--------------------------------------7b--------7b------------|
|-----------------------------------------------------5-8-7-4--|
|-0000-------0000-------1---1/6---5b--------5b-----------------|
|-0000-0-0-0-0000-0-0-0---0-----0----0----0----0----0----------|
  .... .   . .... .   .   .     .    .    .    .    .

|---------------------------------------------------------------------|
|---------------------------------------------------------------------|
|--------------------------------------7b--------7b-------------------|
|-----------------------------------------------------5-8-7-4-3-4-----|
|-0000-------0000-------1---1/6---5b--------5b--------------------6-5-|
|-0000-0-0-0-0000-0-0-0---0-----0----0----0----0----0-----------------|
  .... .   . .... .   .   .     .    .    .    .    .



verse 1 x2
|-----------------------------------------------------------|
|-----------------------------------------------------------|
|-----------------------------------------------------------|
|--------5--------------------------5------------8-8-8-8-8--|
|-0000-9---9-0-0-0000-0000---0000-9---9-0-0-0000-9-9-9-9-9--|
|-0000-------0-0-0000-0000---0000-------0-0-0000------------|
  ....       . . .... ....   ....       . . ....

verse 2
|-------------------------------------------------------------------|
|-------------------------------------------------------------------|
|-------------------------------------------------------------------|
|-0---------------0-----0---0---1-0---------------3-----3---3---5-6-|
|-0-0-0-0---0-0-0-0-0-0-0-0-0-0-1-0-0-0-0---0-0-0-3-0-0-3-0-3-0-5-6-|
|---0-0-0---0-0-0---0-0---0---0-----0-0-0---0-0-0---0-0---0---0-----|
    . . .   . . .   . .   .   .     . . .   . . .   . .   .   .

|-------------------------------------------------------------------|
|-------------------------------------------------------------------|
|-------------------------------------------------------------------|
|-0---------------0-----0---0---1-0---------------3-----3---3---5---|
|-0-0-0-0---0-0-0-0-0-0-0-0-0-0-1-0-0-0-0---0-0-0-3-0-0-3-0-3-0-5---|
|---0-0-0---0-0-0---0-0---0---0-----0-0-0---0-0-0---0-0---0---0-----|
    . . .   . . .   . .   .   .     . . .   . . .   . .   .   .
 
breakdown 1 x2
|--------------------------------------------------------|
|--------------------------------------------------------|
|------------------------------------------------7b------|
|--------------------------------------------------------|
|-----3-000-----3-000-000-000-----3-000-000-5b--------5--|
|-1-3---000-1-3---000-000-000-1-3---000-000----0----0----|
        ...       ... ... ...       ... ...    .    .

chorus
|----------------------------------------|--------------------------|
|----------------------------------------|--------------------------|
|----------------------------------------|--------------------------|
|--0----8-7-3-5---10---0----8-7-3-5---10-|----10-0-3-10-8--0-3--10--|
|--0----8-7-3-5---10---0----8-7-3-5---10-|----10-0-3-10-8--0-3--10--|
|--0----8-7-3-5---10---0----8-7-3-5---10-|----10-0-3-10-8--0-3--10--|
         play first part twice                                
                                           the up and down strumming here 
                                           is difficult to tell how many times
                                           each is strummed just listen to the 
                                           song to get the rhythm 
bridge
|--------------------------------|
|--------------------------------|
|--------------------------------|
|--------------------------------|
|-0000-------0000-------1---1/6--|
|-0000-------0000---------0------|
  ....       ....         .

verse 3
|--------------------------------------------------------------|
|--------------------------------------------------------------|
|--------------------------------------7b--------7b------------|
|-----------------------------------------------------5-8-7-4--|
|-0000-------0000-------1---1/6---5b--------5b-----------------|
|-0000-------0000-0-0-0---0-----0----0----0----0----0----------|
  ....       .... .   .   .     .    .    .    .    .

|---------------------------------------------------------------------|
|---------------------------------------------------------------------|
|--------------------------------------7b--------7b-------------------|
|-----------------------------------------------------5-8-7-4-3-4-----|
|-0000-------0000-------1---1/6---5b--------5b--------------------6-5-|
|-0000-0-0-0-0000---------0-----0----0----0----0----0-----------------|
  .... .   . ....         .     .    .    .    .    .

guitar break

verse 2
|---------------------------------------------------------------------------|
|---------------------------------------------------------------------------|
|---------------------------------------------------------------------------|
|-0-0-0-x-0---------------0-----0---0---1-0---------------3-----3---3---5-6-|
|-0-0-0-x-0-0-0-0---0-0-0-0-0-0-0-0-0-0-1-0-0-0-0---0-0-0-3-0-0-3-0-3-0-5-6-|
|-0-0-0-x---0-0-0---0-0-0---0-0---0---0-----0-0-0---0-0-0---0-0---0---0-----|
        ^   . . .   . . .   . .   .   .     . . .   . . .   . .   .   .
  
|-------------------------------------------------------------------|
|-------------------------------------------------------------------|
|-------------------------------------------------------------------|
|-0---------------0-----0---0---1-0---------------3-----3---3---5---|
|-0-0-0-0-0-0-0-0-0-0-0-0-0-0-0-1-0-0-0-0-0-0-0-0-3-0-0-3-0-3-0-5---|
|---0-0-0-0-0-0-0---0-0---0---0-----0-0-0-0-0-0-0---0-0---0---0-----|
    . . . . . . .   . .   .   .     . . . . . . .   . .   .   .
 
breakdown 1 x2
|--------------------------------------------------------|
|--------------------------------------------------------|
|------------------------------------------------7b------|
|--------------------------------------------------------|
|-----3-000-----3-000-000-000-----3-000-000-5b--------5--|
|-1-3---000-1-3---000-000-000-1-3---000-000----0----0----|
        ...       ... ... ...       ... ...    .    .

chorus
|---------------------------------------------------------------|
|---------------------------------------------------------------|
|---------------------------------------------------------------|
|-------8-7-3-5---10---0------10-0-3-10-8--0-3--10--------------|
|-------8-7-3-5---10---0------10-0-3-10-8--0-3--10--------------|
|-------8-7-3-5---10---0------10-0-3-10-8--0-3--10--------------|
                             |--------------------|
                                strum up and down 
breakdown 2
same as lead.
and there you go