Artist: David Crosby, Title: Deja Vu - EBDGAD

Card image

E

Card image

B

Card image

D

Card image

G

Card image

A

Card image

D

David Crosby - Deja Vu

TUNING: E B D G A D

 

RIFF (n.c.)

(scat singing) one two three four

RIFF (during words)

If I had ever been here before

I would probably know just what to do

Don't you?

If I had ever been here before on another time around the wheel

I would probably know just how to deal

A11

With all of you

 

Esus2 Bm11/E Bm11 Bm9/E E7addA E11

And I feel like I've been here before

Esus2 Bm11/E Bm11 Bm9/E E7addA E11

Feel like I've been here before

A11(2) E11

And you know it makes me wonder

Dm6/E E7sus4 Bm7

What's going on under the ground, hmmm

 

<12> <12> Bm7

Do you know? Don't you wonder?

<12> <12> Am9addD Bm9 C#m9/D

What's going on down under you

G5addC# Gsus4 G Gsus2 D6 C6+9 A11 A7sus4 A11 A7sus4

Da ba da da ba da da ba da da da da da da

Am9/D Em9 Bm9 Am9/D Gm9

<12> <7> <12> <7>

We have all been here before, we have all been here before

Bm9 Am9/D Gm9

<12> <7> <12> <7>

We have all been here before, we have all been here before

Bm9 Am9/D Gm9

<12> <7> <12> <7> Am9/D

We have all been here before, we have all been here before

 

RIFF:

D ---0-----3-----0-----5----
A -----0-----3-----0-----5-- (rpt)
G -0-----3-----0-----5------
D --------------------------
B --------------------------
E -------------------------- 

CHORDS:

Esus2 Bm11/5 Bm11 Bm9/E E7addA E11 A11(2) E11 Dm6/E E7sus4 Bm7 <12> A11

D --9------7-----0----0-------0----0---0------0---0-----0------0---<12>---0---
A --9------7-----0----0-------0----0---0------0---0-----0------0---<12>---0---
G --9------7-----7----6-------4----2---4------4---4-----4------2---<12>---0---
D --9------7-----7----7-------6----4---5------4---3-----2------0---<12>---0---
B --0------0-----0----0-------0----0---0------0---0-----0------0---<12>---0---
E --0------0-----0----0-------0----0---0------0---0-----0------2-----0----0---
 

Am9addD Bm9 C#m9/D G5addC# Gsus4 G Gsus2 D6 C6+9 A7sus4 Em9 Gm9 <7>

D ----0-----0----0------0-------0---0---0---0---0----0------0---0--<7>---
A ----3-----5----7------4-------3---2---0---0---0----0-----10---1--<7>---
G ----4-----6----8------0-------0---0---0---4---2----0-----11---2--<7>---
D ----5-----7----9------5-------5---5---5---4---2----5-----12---3--<7>---
B ----5-----7----9--------------------------3---1----5-----12---3--<7>---
E ----5-----7----9-----------------------------------5-----12---3---0----