Artist: Five Finger Death Punch, Title: Falling in Hate - BEADF#B

B
E
A
D
F#
B

Five Finger Death Punch - Falling in Hate

Tabbed by: Glowingjowel
Email:Devilbladesoulhotmail.com

Note : Tabs may not be exactly right.But to me they are pretty accurate.But feel 
free to correct them if you see any mistake.

Tuning:BEADF#B


e|---------------------------------------------------------------------------|
B|---------------------------------------------------------------------------|  
G|--------------11--11-11-11-10-10-10-10-------------------------------------| x3 -----|
D|--7---9-9--12-9---9--9--9--8--8--8--8--------------------------------------|         |
A|--7---9-9--10--------------------------------------------------------------|         |
E|--5-/-7-7------------------------------------------------------------------|         |
                                                                                       |
e|---------------------------------------------------------------------------|         |
B|---------------------------------------------------------------------------|         |
G|--------------11------7-6-6-6----------------------------------------------|         |
D|--7---9-9--12-9---7-7-7-6-6-6----------------------------------------------|         |
A|--7---9-9--10-----7-7-5-4-4-4----------------------------------------------|         |
E|--5-/-7-7---------5-5------------------------------------------------------|         |
                                                                                       |          
e|---------------------------------------------------------------------------|         |
B|---------------------------------------------------------------------------|         |
G|--------------11--11-11-11-10-10-10-10-------------------------------------| x3 -----|
D|--7---9-9--12-9---9--9--9--8--8--8--8--------------------------------------|         |
A|--7---9-9--10--------------------------------------------------------------|         |
E|--5-/-7-7------------------------------------------------------------------|         |
                                                                                       |
e|---------------------------------------------------------------------------|         |
B|---------------------------------------------------------------------------|         |
G|--------------11------7-6-6-6----------------------------------------------|         |----X2
D|--7---9-9--12-9---7-7-7-6-6-6----------------------------------------------|         |
A|--7---9-9--10-----7-7-5-4-4-4----------------------------------------------|         |
E|--5-/-7-7---------5-5------------------------------------------------------|         |  
                                                                                       |
e|---------------------------------------------------------------------------|         |
B|---------------------------------------------------------------------------|         |
G|--------3----------------------------3-------------------------------------| x2 -----|
D|-2--2-2-3-2--2-2-5-2--2-5-5---2--2-2-3-2--2-2-5-2--2-3-3-------------------|         |
a|-2--2-2-1-2--2-2-5-2--2-5-5---2--2-2-1-2--2-2-5-2--2-3-3-------------------|         |
E|-0--0-0---0--0-0-3-0--0-3-3---0--0-0---0--0-0-3-0--0-1-1-------------------|         |
                                                                                       |
e|---------------------------------------------------------------------------|         |
B|---------------------------------------------------------------------------|         |
G|---------------------------------------------------------------------------|         |
D|-2-2-4-5-2-2-3-2--2-3-2-10-9--2-2-4-5-2-2-3-2--2-3-2-----------------------| x2 -----|
A|-2-2-4-5-2-2-3-2--2-3-2-8--7--2-2-4-5-2-2-3-2--2-3-2-10-10-9---------------|
E|-0-0-2-3-0-0-1-0--0-1-0-------0-0-2-3-0-0-1-0--0-1-0-8--8--7---------------|

e|---------------------------------------------------------------------------|
B|---------------------------------------------------------------------------|
G|---------------------------------------------------------------------------|
D|-2-----2-2----2----2--2-----2-2----2---------------------------------------| x6
A|-2-----2-2----2----2--2-----2-2----2---------------------------------------|
E|-0-000-0-0-00-0-00-0--0-000-0-0-00-0---------------------------------------|

e|---------------------------------------------------------------------------|
B|---------------------------------------------------------------------------|
G|--------------11--11-11-11-10-10-10-10-------------------------------------| 
D|--7---9-9--12-9---9--9--9--8--8--8--8--------------------------------------|         
A|--7---9-9--10--------------------------------------------------------------|         
E|--5-/-7-7------------------------------------------------------------------| 

e|---------------------------------------------------------------------------|  
B|---------------------------------------------------------------------------|   
G|--------------11------7-6-6-6----------------------------------------------|        
D|--7---9-9--12-9---7-7-7-6-6-6----------------------------------------------|         
A|--7---9-9--10-----7-7-5-4-4-4----------------------------------------------|         
E|--5-/-7-7---------5-5------------------------------------------------------|


e|---------------------------------------------------------------------------|
B|---------------------------------------------------------------------------|
G|--------------11--11-11-11-10-10-10-10-------------------------------------| x3
D|--7---9-9--12-9---9--9--9--8--8--8--8--------------------------------------|         
A|--7---9-9--10--------------------------------------------------------------|         
E|--5-/-7-7------------------------------------------------------------------| 

e|---------------------------------------------------------------------------|    
B|---------------------------------------------------------------------------|
G|--------------11------7-6-6-6----------------------------------------------|         
D|--7---9-9--12-9---7-7-7-6-6-6----------------------------------------------|         
A|--7---9-9--10-----7-7-5-4-4-4----------------------------------------------|         
E|--5-/-7-7---------5-5------------------------------------------------------|

e|---------------------------------------------------------------------------|
B|---------------------------------------------------------------------------|
G|---------------------------------------------------------------------------|
D|-2-2-4-5-2-2-3-2--2-3-2-10-9--2-2-4-5-2-2-3-2--2-3-2-----------------------| x2
A|-2-2-4-5-2-2-3-2--2-3-2-8--7--2-2-4-5-2-2-3-2--2-3-2-10-10-9---------------|
E|-0-0-2-3-0-0-1-0--0-1-0-------0-0-2-3-0-0-1-0--0-1-0-8--8--7---------------|

************************************