Artist: Nick Drake, Title: Harvest Breed - BEBEBE

Card image

B

Card image

E

Card image

B

Card image

E

Card image

B

Card image

E

Nick Drake - Harvest Breed

HARVEST BREED
     
Tuning: BEBEBE Capo 4th Fret
     


Main Riff (and verse):
     
 |--------|--------|--------|--------| 
 |--0-----|--0-----|--0-----|--0-----| 
 |-0--0-0-|-0--0-0-|-0--0-0-|-0--0-0-| 
 |3--3-3--|4--4-4--|5--5-4--|2--2-2--| 
 |1--1-1--|2--2-2--|4--4-2--|0--0-0--|
0|-------0|-------0|-------0|-------0|
                      (*)
     
nb During the verse, at (*) the 54 becomes 42 instead
     
     
End of intro:        End of verse:
     
|---0----|--------|  |--------|--------| 
|--0--0--|----0---|  |--------|--------| 
|-0-0---0|---0----|  |---0----|-0--0-0-| 
|2-2-----|-2----0-|  |2-2--2--|2--2-2--| 
|-2---2--|---22---|  |-2-----0|--2---2-| 
|2------0|-------0|  |2---2-2-|2---2---|
     
End of outro:
     
|---0----|---0----|--------|-
|--0--0--|-0--0---|--0-----|-
|-0-----0|------0-|---0-0--|-
|2-2-2-2-|2-2-2--0|-3----3-|4
|-2---2-2|-2-2-2--|--1--1--|2
|2-------|--------|0---0--0|-
     
     
Tabbed by Chris Healey