Artist: Aerosmith, Title: No More No More - EBEEBE

Card image

E

Card image

B

Card image

E

Card image

E

Card image

B

Card image

E

Aerosmith - No More No More

e-----------------------------0-----------------|
B---------0------------0------0-----------------|
E--------0-0----------0-0-----0-----------------|
E-----0------------0----------------------------|
B----0-0----------0-0---------------77--9--7--9-|
E---5--------5---4--------0---------77--7--7--7-|
                              V
                          hard strum

.......on the 3rd repeat, leave out the --77--9--7--9-|
                                        --77--7--7--7-|

then....
riff 2...repeat 4x(listen to make sure)
e---------------------------------|
B---------------------------------|
E---------------------------------|
E---------------------------------|
B-------5--777--5-7--4-555-4-5----|
E-------5--777--5-7--4-555-4-5----|

riff 3 1000x  e----------------------|
              B----------------------|
              E----------------------|
              E-------------55555555-|
              B-------------55555555-|
              E----------------------|
riff 3 played over and over while Steven sings.... Blood stains the ivories of my 
baby grand, ain't seen no daylight since we started this band'

riff 4 e-----------------------------|
       B-----------------------------|
       E-----------------------------|
       E-----------------------------|
       B---77--9--7-9--77--9--77--9--|
       E---77--7--7-7--77--7--77--7--|

riff 4 played as Steve & Joe sing "No More, No More, No More, No More"


riff 3 1000x  e----------------------|
              B----------------------|
              E----------------------|
              E-----------55555555---|
              B-----------55555555---|
              E----------------------|

riff 3 played while Steven sings..... Store bought clothes fallin' 'part at the seams, 
leaf readin' gypsies, fortune tellin' my dreams

riff 4 e-----------------------------|
       B-----------------------------|
       E-----------------------------|
       E-----------------------------|
       B---77--9--7-9--77--9--77--9--|
       E---77--7--7-7--77--7--77--7--|

riff 4 played as Steve & Joe sing "No More, No More, No More, No More"


riff 3 1000x  e---------------------|
              B---------------------|
              E---------------------|
              E------------55555555-|
              B------------55555555-|
              E---------------------|

riff 3 played while Steven sings..... Holiday inns, lock the door with a chain, you love 
and you hate it, but to me they're all the same


riff 4 e-----------------------------|
       B-----------------------------|
       E-----------------------------|
       E-----------------------------|
       B---77--9--7-9--77--9--77--9--|
       E---77--7--7-7--77--7--77--7--|

riff 4 played as Steve & Joe sing "No More, No More, No More, No More"


riff 1
e----------------------------0--|
B---------0------------0-----0--|
E--------0-0----------0-0----0--|
E-----0------------0------------|
B----0-0----------0-0-----------|
E---5--------5---4--------0-----|


riff 1 played as Steven sings...Baby i'm a dreamer, found my horse and carriage


riff 3 1000x  e----------------------|
              B----------------------|
              E----------------------|
              E-------------55555555-|
              B-------------55555555-|
              E----------------------|
riff 3 played as Steven sings....Stalemate jailbate, Ladies can't refuse, You love 'em 
you leave 'em, With your sold out reviews

riff 4 e-----------------------------|
       B-----------------------------|
       E-----------------------------|
       E-----------------------------|
       B---77--9--7-9--77--9--77--9--|
       E---77--7--7-7--77--7--77--7--|

riff 4 played as Steve & Joe sing "No More, No More, No More, No More, No More No 
(Joe holds note)"


riff 1
e----------------------------0--|
B---------0------------0-----0--|
E--------0-0----------0-0----0--|
E-----0------------0------------|
B----0-0----------0-0-----------|
E---5--------5---4--------0-----|


riff 1 played as Steven sings...Baby i'm a screamer, bound to a wife in marriage

e------------------|
B------------------|
E------------------|
E------------------|
B------77--9--7-9--|
E------77--7--7-7--|

riff 1
e----------------------------0--|
B---------0------------0-----0--|
E--------0-0----------0-0----0--|
E-----0------------0------------|
B----0-0----------0-0-----------|
E---5--------5---4--------0-----|

riff 1 plays as Steven sings...Baby i'm a dreamer, found my horse and carriage

riff 3 1000x  e----------------------|
              B----------------------|
              E----------------------|
              E-------------55555555-|
              B-------------55555555-|
              E----------------------|

riff 3 plays while Steven sings..... Ladies hold the aces, And their lovers call it 
The men call it pleasure, But to me it's old fashioned

riff 5 1000x  e----------------------|
              B----------------------|
              E----------------------|
              E----------------------|
              B-------------55555555-|
              E-------------55555555-|

riff 5 plays while Steven sings...Times they're a changin, Nothin' ever stands still, If 
don't stop changin, I'll be writin' out my will


riff 6 1000x  e----------------------|
              B----------------------|
              E----------------------|
              E----------------------|
              B-------------77777777-|
              E-------------77777777-|

riff 6 plays while Steven sings..... It's the same old story, Never get a second chance, 
a dance to the top of the hill


riff 1
e----------------------------0--|
B---------0------------0-----0--|
E--------0-0----------0-0----0--|
E-----0------------0------------|
B----0-0----------0-0-----------|
E---5--------5---4--------0-----|

riff 1 plays as Steven sings...Baby i'm a dreamer, found my horse and carriage


Now the outro(back into standard EADGBe tuning for both Brad and Joe.

Brad Whitford plays this.....(while Brad is playing this, Joe is offstage grabbing his 
Paul)

e|-----------------|-----------------|-----------------|-----------------|
B|-----------------|-----------------|-----------------|-----------------|
G|-----------------|-----------------|-----------9-----|-----------------|
D|-7---9-9---7-9---|-6---7-7---6-7-6-|-----------9-----|-----9-9---9-9---|
A|-7---9-9---7-9---|-6---7-7---6-7-6-|-----------7-----|-----9-9---9-9---|
E|-5---7-7---5-7---|-4---5-5---4-5-4-|-0-----3p0-------|-----7-7---7-7---|

over and over and over while Joe plays the outro solo is standard on his Les Paul(with
slung over his back....the telecaster part is important too people)

You can find the outro solo here...

http://www.rockmagic.net/guitar-tabs/aerosmith/no_more_no_more.tab

it looks funny when i copy & paste it.


As a side note....the last open low-E note in the intro, you can play that as open or 
at the 4th, whichever sounds better to you.

e----------------------------0--|
B---------0------------0-----0--|
E--------0-0----------0-0----0--|
E-----0------------0------------|
B----0-0----------0-0-----------|
E---5--------5---4--------0-----|
                          V
                      you can play this as open E or fretted A


Hope you enjoy this tab, it's my first so it's probably full of mistakes