Artist: Ben Howard, Title: Old Pine - CGCGCG

C
G
C
G
C
G

Ben Howard - Old Pine

Tabbed by: Callum Arnold
Email:

Tuning: CGCGGC with capo on 5th.

Intro

c|------7-------5-------4-------2-|(/7)-------7-------5-------4-------2-|
G|----0-------0-------0-------0---|---------0-------0-------0-------0---|
G|--0-------0-------0-------0-----|-------0-------0-------0-------0-----|
C|0-------0-------0-------0-------|-----0-------0-------0-------0-------|
G|--------------------------------|-------------------------------------|
C|--------------------------------|-------------------------------------|

c|---------------------------------|----------------------------------|
G|--------5----------------5-------|---------5----------------5-------|
G|----0-----0---0------0-----0---0-|-----0-----0---0------0-----0---0-|
C|--0---0-----0------0---0-----0---|---2---2-----2------2---2-----2---|
G|2----------------2---------------|0-----------------0---------------|
C|---------------------------------|----------------------------------|

Verse

c|x-------------------|------------------|
G|x-------------------|------------------|
G|x-----------0-------|------------------|
C|x---4p2p0-----0---0-|--4p2p0---2p0-2p0-|
G|x---------0-----0---|--------0---------|
C|x-0-----------------|0-----------------|

c|-------------------|--------0-------|--------0-------|
G|-------------------|--------0-------|--------0-------|
G|-----------0-------|----0-----0---0-|----0-----0---0-|
C|---4p2p0-----0---0-|--0---0-----0---|--2---2-----2---|
G|---------0-----0---|2---------------|4---------------|
C|-0-----------------|----------------|----------------|


Ben alternates between the two (above and below). X stands for thumb slap here, and only 
occurs on version 1 once, at the beginning of verse 1.

c|-------------------|------------------|
G|-------------------|------------------|
G|-----------0-------|------------------|
C|---4p2p0-----0---0-|--4p2p0---2p0-2p0-|
G|---------0-----0---|--------0---------|
C|-0-----------------|0-----------------|

c|-------------------|--------0---0-|--------0---0-|
G|-------------------|--------0---0-|--------0---0-|
G|-----------0-------|----0-----0-0-|----0-----0-0-|
C|---4p2p0-----0---0-|--0---0-----0-|--2---2-----2-|
G|---------0-----0---|2-----------2-|4-----------4-|
C|-0-----------------|------------x-|------------x-|

Chorus

c|0-------------|0-------------|0--------------|
G|0-------------|0-------------|0--------------|
G|0-------------|0-------------|0--------------|
C|4-------------|2-------------|4--------------|
G|5-------------|4-------------|5--------------|
C|0-------------|0-------------|0--------------|

c|0-------------|0-------------|0------------|
G|0-------------|0-------------|0------------|
G|0-------------|0-------------|0------------|
C|2-------------|4-------------|2------------|
G|4-------------|2-------------|0------------|
C|0-------------|0-------------|0------------|


Bridge

c|0----0---0----0---0----0---0---0--|0----0---0----0---0---------0-|
G|0----0---0----0---0----0---0---0--|0----0---0----0---0---------0-|
G|4/5--5---4/5--5---4/5--5---7---5--|4/5--5---4/5--5---0---------0-|
C|0----0---0----0---0----0---0---0--|0----0---0----0---4---------2-|
G|4/5--5---4/5--5---4/5--5---5---5--|4/5--5---4/5--5---5---------4-|
C|0----0---0----0---0----0---0---5--|0----0---0----0---0---------0-|

NB. I have only shown the notes played, not the strum pattern.

Order

Intro
Verse
Chorus
Verse
Chorus
Bridge
Verse; here Ben just strum the notes.

Play around with the patterns until it fits the song and enjoy!