Artist: A day To remember, Title: Out of Time - CGCFAD

C
G
C
F
A
D

A day To remember - Out of Time

|+ --------------------------------------------------------------------- +
| Ultimate Guitar Tabs Archive - your #1 source for tabs!               |
| http://www.ultimate-guitar.com/                                       |
|                                                                       |
| Over 800,000 guitar, guitar pro and bass tabs! Also lessons, news,    |
| columns and guitar forums!                                            |
+ --------------------------------------------------------------------- +
|Hey peeps, this is a pretty awesome song, so I tabbed it out, I'm 99% sure about 
it so don't be stupid and comment saying I'm deaf or w/e. but other than that. enjoy!!!

Drop C

A DAY TO REMEMBER - OUT OF TIME


Intro

Lead and Rhythm
|-------------------------------------------------------------------------|
|-------------------------------------------------------------------------|
|-------------------------------------------------------------------------|
|-9999999999999999-4444444444444444-5555555555555555-0000000088888888-----|
|-9999999999999999-4444444444444444-5555555555555555-0000000088888888-----|
|-9999999999999999-4444444444444444-5555555555555555-0000000088888888-----|
  **************** **************** **************** ****************
|-------------------------------------------------------------------------|
|-------------------------------------------------------------------------|
|-------------------------------------------------------------3~----------|
|-9999999999999999-4444444444444444-5555555555555555-00000000-x-----------|
|-9999999999999999-4444444444444444-5555555555555555-00000000-1~----------|
|-9999999999999999-4444444444444444-5555555555555555-00000000-------------|
     ************* **************** **************** ********                


Then...A little Pre- Verse thing

Lead
|-------------------------------|
|-12------12------12------12----|
|-15b16---15b16---15b16---15b16-|
|-------------------------------|
|-------------------------------|
|-------------------------------|

Verse 1

Lead
|---------------------------------------|
|--7------7-------7------7------7-------|
|---7-X5---7-X5----7-X5---7-X3---7-X5---| X2
|-9--------------5------0------8--------| 
|--------9------------------------------|
|---------------------------------------|

Rhythm 
|-------------------------------------------------------------------------|
|-------------------------------------------------------------------------|
|----------------------------------------------------------33333333-------|
|-9999999999999999-4444444444444444-5555555555555555-12----33333333-------|
|-9999999999999999-4444444444444444-5555555555555555-12-X8-11111111-------|
|-9999999999999999-4444444444444444-5555555555555555-12-------------------| X2

Pre - Chorus

|-------------------------------------------------------------------------|
|-------------------------------------------------------------------------|
|-------------------444/66677--222/66677---------------3333---------------|
|-------------------xxx/xxxxx--xxx/xxxxx----------xxxx-xxxx---------------|
|-------------------222/44455--000/44455----------xxxx-1111---------------|
|-55555555-22222222----------------------55555555-xxxx--------------------|







Rhythm 
|-------------------------------------------------------------------------|
|-------------------------------------------------------------------------|
|----------------------------------------------------3333-----------------|
|--------------------99999999-77777777----------xxxx-xxxx-----------------|
|--------------------99999999-77777777----------xxxx-1111-----------------|
|-55555555-22222222--99999999-77777777-55555555-xxxx----------------------|

Chorus

Lead: -
|-------------------------------------------------------------------------|
|-------------------------------------------------------------------------|
|-4444444444444444---------eeee79-7777777777777777-777666------7744-------|
|-4444444444444444-55555555xxxxxx-xxxxxxxxxxxxxxxx-------777888-----------|
|-2222222222222222-55555555999957-5555555555555555------------------------|
|------------------55555555-----------------------------------------------|

Rhythm
|-------------------------------------------------------------------------|
|-------------------------------------------------------------------------|
|-------------------------------------------------------------------------|
|-9999999999999999-5555555555555555-0000000000000000-7777777788888888-----|
|-9999999999999999-5555555555555555-0000000000000000-7777777788888888-----|
|-9999999999999999-5555555555555555-0000000000000000-7777777788888888-----|

Post Chorus/Pre - Verse


|-------------------|
|-------------------|
|-------------------|
|-------------------|
|-------------------|
|-55555555-22222222-|


Lead: - 
|---------------------------------------|
|--7------7-------7------7------7-------|
|---7-X5---7-X5----7-X5---7-X3---7-X5---| X2
|-9--------------5------0------8--------| 
|--------9------------------------------|
|---------------------------------------|

Rhythm: - Comes in after the “Hey, Hey, Hey, Hey” bit...
|----------------------------------------------------------------------------|
|----------------------------------------------------------------------------|
|--------------------------------------------33333333------------------------|
|-4-----------------555555555555555-12-------33333333------------------------|
|-4-----------------555555555555555-12-X8----11111111------------------------|
|-4-444444444444444-555555555555555-12---------------------------------------| 

|-------------------------------------------------------------------------|
|-------------------------------------------------------------------------|
|----------------------------------------------------------33333333-------|
|-9999999999999999-4444444444444444-5555555555555555-12----33333333-------|
|-9999999999999999-4444444444444444-5555555555555555-12-X8-11111111-------|
|-9999999999999999-4444444444444444-5555555555555555-12-------------------| X2






Pre - Chorus

|-------------------------------------------------------------------------|
|-------------------------------------------------------------------------|
|-------------------444/66677--222/66677---------------3333---------------|
|-------------------xxx/xxxxx--xxx/xxxxx----------xxxx-xxxx---------------|
|-------------------222/44455--000/44455----------xxxx-1111---------------|
|-55555555-22222222----------------------55555555-xxxx--------------------|





Rhythm 
|-------------------------------------------------------------------------|
|-------------------------------------------------------------------------|
|----------------------------------------------------3333-----------------|
|--------------------99999999-77777777----------xxxx-xxxx-----------------|
|--------------------99999999-77777777----------xxxx-1111-----------------|
|-55555555-22222222--99999999-77777777-55555555-xxxx----------------------|


Chorus

Lead
|-------------------------------------------------------------------------|
|-------------------------------------------------------------------------|
|-4444444444444444---------eeee79-7777777777777777-777666------7744-------|
|-4444444444444444-55555555xxxxxx-xxxxxxxxxxxxxxxx-------777888-----------|
|-2222222222222222-55555555999957-5555555555555555------------------------|
|------------------55555555-----------------------------------------------|

Rhythm
|-------------------------------------------------------------------------|
|-------------------------------------------------------------------------|
|-------------------------------------------------------------------------|
|-9999999999999999-5555555555555555-0000000000000000-7777777788888888-----|
|-9999999999999999-5555555555555555-0000000000000000-7777777788888888-----|
|-9999999999999999-5555555555555555-0000000000000000-7777777788888888-----|

Post Chorus/Pre - Verse


|-------------------|
|-------------------|
|-------------------|
|-------------------|
|-------------------|
|-55555555-22222222-|


Bridge

Rhythm
|----------------------|
|----------------------|
|----------------------|
|-9999555500008888-----|
|-9999555500008888-----|
|-9999555500008888-----|







Lead
|---------------------------------------------------------------------------|
|-7-8-7-5-7-5----888-777-7-8-7-5-7-5----------------------------------------|
|-------------7----------------------6-777-999-444/666/77/121212\1111111111-|
|----------------------------------------------xxx-xxx-xx-x-x-x--x-x-x-x-x--|
|----------------------------------------------222/444/55/101010\9-9-9-9-9--|X2
|---------------------------------------------------------------------------|

Final Chorus

Lead
|---------------------------------------------------------|
|---------------------------------------------------------|
|----------eeee79-7777777777777777-777666------7744-------|
|--55555555xxxxxx-xxxxxxxxxxxxxxxx-------777888-----------|
|--55555555999957-5555555555555555------------------------|
|--55555555-----------------------------------------------|

|-------------------------------------------------------------------------|
|-------------------------------------------------------------------------|
|-4444444444444444---------eeee79-7777777777777777-777666------7744-------|
|-4444444444444444-55555555xxxxxx-xxxxxxxxxxxxxxxx-------777888-----------|
|-2222222222222222-55555555999957-5555555555555555------------------------|
|------------------55555555-----------------------------------------------|


Rhythm
|-------------------------------------------------------------------------|
|-------------------------------------------------------------------------|
|-------------------------------------------------------------------------|
|------------------5555555555555555-0000000000000000-7777777788888888-----|
|------------------5555555555555555-0000000000000000-7777777788888888-----|
|------------------5555555555555555-0000000000000000-7777777788888888-----|



|-------------------------------------------------------------------------|
|-------------------------------------------------------------------------|
|-------------------------------------------------------------------------|
|-9999999999999999-5555555555555555-0000000000000000-7777777788888888-----|
|-9999999999999999-5555555555555555-0000000000000000-7777777788888888-----|
|-9999999999999999-5555555555555555-0000000000000000-7777777788888888-----|


Outro

|-------------------------------------------------------------------------|
|-------------------------------------------------------------------------|
|-------------------444/66677--222/66677---------------3333---------------|
|-------------------xxx/xxxxx--xxx/xxxxx----------xxxx-xxxx---------------|
|-------------------222/44455--000/44455----------xxxx-1111---------------|
|-55555555-22222222----------------------55555555-xxxx--------------------|

Rhythm 
|-------------------------------------------------------------------------|
|-------------------------------------------------------------------------|
|----------------------------------------------------3333-----------------|
|--------------------99999999-77777777----------xxxx-xxxx-----------------|
|--------------------99999999-77777777----------xxxx-1111-----------------|
|-55555555-22222222--99999999-77777777-55555555-xxxx----------------------|