Artist: Nick Drake, Title: Parasite - CGCFCE

Card image

C

Card image

G

Card image

C

Card image

F

Card image

C

Card image

E

Nick Drake - Parasite

PARASITE

Tuning CGCFCE capo 3rd fret

This is mainly lots of small variations on one riff:

|------0-----|------0-----|------0-----|------0-----|------0-----| 
|---0-----0--|---0-----0--|---0-----0--|---0-----0--|---0-----0--| 
|5-----5-----|4-----4-----|3-----3-----|02----2-----|02----2-----| 
|---0-----0--|---0-----0--|---0-----0--|---0-----0--|---0-----0--| 
|--0---0-0-0-|--0---0-0-0-|--0---0-0-0-|--0---0-0-0-|--0---0-0-0-| 
|0---0-------|0---0-------|0---0-------|0---0-------|0---0-------|

Main variations:
  the 4 and 3 are hammered on from 0 in intro
  the top string 0 in the last 2 bars can be 10 or 30
  the first note of the bar is often open G

"Take a look..."              End

|------------|            |---0--------|
|---0-----0--|            |------0-----|
|0-----0-----|            |02-2--2-----|
|------------|            |------------|
|--1-1---1-1-|            |0-0---------|
|1-----1-----|            |----0-------|

Tabbed by Chris Healey


(thanks to Eric Bogoen for an improvement)