Artist: Mumford and Sons, Title: Sigh No More - DADF#AD

D
A
D
F#
A
D

Mumford and Sons - Sigh No More

1. Sigh No More
   Tuning: DADGCD
Tabbed By: Unregistered (thanks anyways!)

Intro:

    C
||------------------------------------||
||--0-0-0-0-0-0-0-0-0-0-0-0-0-0-0-0---||
||----------0-0-0-0---------0-0-0-0---||
||------------------------------------||
||--3-3-3-3-3-3-3-2-3/3-3-3-3-3-3-3---||
||------------------------------------||x2

Verse 1:

||------------------------------------||
||--0-0-0-0-0-0-0-0-0-0-0-0-0-0-0-0---||
||----------0-0-0-0---------0-0-0-0---||
||------------------------------------||
||--3-3-3-3-3-3-3-3-3-3-3-3-3-3-3-3---||
||------------------------------------||x3

    Serve God Love me and men
    This is not the end
    Live unbruised we are friends

    Am              C
||--0---------------0-----------------||
||--0-0-0-0-0-0-0-0-0-0-0-0-0-0-0-0---||
||--2---------------0-----------------||
||--2---------------2-----------------||
||--0-0-0-0-0-0-0-0-3-3-3-3-3-3-3-3---||
||------------------------------------||x2

I'm Sor-------------ry
I'm sor-------------ry

Verse 2:

||------------------------------------||
||--4-4-4-4-2-2-2-2-0-0-0-0-0-0-0-0---||
||--0-0-0-0-0-0-0-0-0-0-0-0-0-0-0-0---||
||------------------------------------||
||--3-3-3-3-3-3-3-3-3-3-3-3-3-3-3-3---||
||------------------------------------||x5 (singing starts on 3rd)

    Sigh No More No more
    On foot in sea one on shore
    My heart was never pure

        Am              C
    ||--0---------------0-----------------||
    ||--0-0-0-0-0-0-0-0-0-0-0-0-0-0-0-0---||
    ||--2---------------0-----------------||
    ||--2---------------2-----------------||
    ||--0-0-0-0-0-0-0-0-3-3-3-3-3-3-3-3---||
    ||------------------------------------||x2

And you kno---------w   me
    you kno---------w   me


||--0---------------0---------||
||--0---------------0---------||
||--2---------------0---------||
||--2-------5-------2---------||
||--0-------5-------3---------||
||----------5-----------------||x4

But man is a giddy thing
Oh man is a giddy thing 
oh man is a giddy thing
oh man is a giddy thing


Chorus:

    (palm muted)
||------------------------------------||
||------------------------------------||
||------------------------------------||
||--2-2-2-2-2-2-2-2-2-2-2-2-2-2-2-2---||
||--3-3-3-3-3-3-3-3-3-3-3-3-3-3-3-3---||
||------------------------------------||

||------------------------------------||
||--0-0-0-0-0-0-0-0-0-0-0-0-0-0-0-0---||
||--0-0-0-0-0-0-0-0-0-0-0-0-0-0-0-0---||
||--2-2-2-2-2-2-2-2-2-2-2-2-2-2-2-2---||
||--2-2-2-2-2-2-2-2-3-3-3-3-3-3-3-3---||
||------------------------------------||

Love it will not    betray you dismay or


||----------------------------------------------------||
||----------------------------------------------------||
||----------------------------------------------------||
||--5-5-5-5-5-5-5-5-7-7-7-7-5-5-5-5-3-3-3-3-3-3-3-3---||
||--5-5-5-5-5-5-5-5-7-7-7-7-5-5-5-5-3-3-3-3-3-3-3-3---||
||--5-5-5-5-5-5-5-5-7-7-7-7-5-5-5-5-3-3-3-3-3-3-3-3---||

enslave you it will   set     you     free,  be more like the

||-----------------------------------||
||---------0-0-------------0-0-------||
||0-0-0-0--2-2-------------0-0-------||
||2-2-2-2--2-2-----5-5-----2-2-------||
||3-3-3-3--0-0-----5-5-----3-3-------||
||-----------------5-5---------------||

man you were made   to      be    


And there is a design, an alignment, a cry
Of my heart to see
The beauty of love as it was made to be.