Artist: Kyuss, Title: Space Cadet - CFA#D#GC

C
F
A#
D#
G
C

Kyuss - Space Cadet

 Kyuss - Space Cadet
-------------------------------------------------------------------------------
Tabbed by: Neil R. Rose
Email: neil.damage.done@gmail.com

Excellent Song. Kyuss rocks. I couldn't find a fully correct tab out there. I think this 
about as close as it gets.
(Really sorry for the messy solo. I wanted to divide it up a bit.)

Tuning: Drop C# ( C#, G#, E, B, F#, C#)


INTRO
e|-----------------------------------------------------------------------------------------|
B|-----------------------------------------------------------------------------------------|
G|-----------------------------------------------------------------------------------------|
D|-----------------------------------------------------------------------------------------|
A|--5/7---7/9---9/10---10/12---12/13---12/13-12-13-15---13\12---12\10----10\9---9\7---7\5--|
E|0-----0-----0------0-------0------------------------0-------0-------0-------0-----0------|

-------------------------|
-------------------------|
-------------------------|
-------------------------|
-4/5------4/7-5-4h5p4-0--|
------5------------------|

VERSE
e|-----------------------------------------------------------|-------------------------|
B|-----------------------------------------------------------|-------------------------|
G|-----------7----7-6/7\6----------------------7----7-6h7p6--|--6--6/7--6h7-6h7-6h7-6--|
D|--------------------------7--------------------------------|-------------------------|
A|--7--7------------------------------7--7-------------------|-------------------------|
E|--0--0------------------------------0--0-------------------|-------------------------|
G1
e|-------------------------------------------|--------------------------------|
B|-------------------------------------------|--------------------------------|
G|--7-----7/9--7--6------6/7---7/9---9--12--9|--9------9------9---9---9-9-9---|
D|-------------------------------------------|----------------9---9---9-9-9---|
A|-------------------------------------------|------7-----7-------------------|
E|-------------------------------------------|--------------------------------|
G2
e|------------------------------------------------------------|-----------------|
B|--8--8-----8---7-------8/(10)---8/(10)---8-----7---8--7h8p7-|-----------------|
G|------------------------------------------------------------|--9--7--9--9--9--|
D|--5--5/7---5---4-------5/(7)----5/(7)----5------------------|-----------------|
A|------------------------------------------------------------|-----------------|
E|------------------------------------------------------------|-----------------|

CHORUS
e|----------------------------10h12--|
B|--8--8-----8----------10h12--------|
G|--9--9-----9-----------------------|
D|--9--9-----9-----------------------|
A|--7--7-----7-----------------------|
E|-----------------0-----------------|

e|---------------------------------|
B|--8--8-----8---------------------|
G|--9--9-----9-------12--12---11---|
D|--9--9-----9---------------------|
A|--7--7-----7-------10--10----9---|
E|---------------------------------|


SOLO
e|--10/12-12-12-12-12----14p12-----12--12--14p12-----12-12-12--|
B|--10/12-12-12-12-12----12-----12-12--12--12-----12-12-12-12--|
G|-------------------------------------------------------------|
D|-------------------------------------------------------------|
A|-------------------------------------------------------------|
E|-------------------------------------------------------------|

--12----10--12--10--9-----9---10----------12-10-9--10-9-----9--10-12-10-9--10-9----9---|
--12----12--12--12--10----10-----10--10---10-10-10-10-10-10-10-10-10-10-10-10-10---10--|
------------------------9--------------------------------------------------------------|
---------------------------------------------------------------------------------------|
---------------------------------------------------------------------------------------|
---------------------------------------------------------------------------------------|

--9----9-\7-----9-b-----7---7-7-/9----9-\7------9-b----7---7-7/12---12--12--12--12------|
--10---10\8-----10b-----8---8-8-/10---10\8------10b----8---8-8/12---12--12--12--12------|
----------------------------------------------------------------------------------------|
----------------------------------------------------------------------------------------|
----------------------------------------------------------------------------------------|
----------------------------------------------------------------------------------------|

--14p12-----12--12--14p12-----12----14-----15--15--15--15--15----15--15--15--15--15--15--|
--12-----12-12--12--12-----12-12-12-12-----12--12--12--12--12----12--12--12--12--12--12--|
-----------------------------------------------------------------------------------------|
-----------------------------------------------------------------------------------------|
-----------------------------------------------------------------------------------------|
-----------------------------------------------------------------------------------------|

--15--14--12--12----10-----12--10--9--10--9------12-10-9------|
--12--12--12--12----12-----12--10--10-10--10--10-10-10-10-10--|
--------------------------------------------------------------|
--------------------------------------------------------------|
--------------------------------------------------------------|
--------------------------------------------------------------|

--9--10--9-12-10-9-----9--10-9-----9--10-9--10-12-10--|
--10-10-10-10-10-10-10-10-10-10-10-10-10-10-10-10-10--|
------------------------------------------------------|
------------------------------------------------------|
------------------------------------------------------|
------------------------------------------------------|

--9------9-10-9-----9--10-9--9--9----9---9---|
--10-10-10-10-10-10-10-10-10-10-10---10--10--|
---------------------------------------------|
---------------------------------------------|
---------------------------------------------|
---------------------------------------------|

--9----9-\7-----9-b-----7---7-7-/9----9-\7------9-b-------7----7--|
--10---10\8-----10b-----8---8-8-/10---10\8------10b-------8----8--|
------------------------------------------------------------------|
------------------------------------------------------------------|
------------------------------------------------------------------|
------------------------------------------------------------------|


| /  slide up
| \  slide down
| h  hammer-on
| p  pull-off
| ~  vibrato
| +  harmonic
| x  Mute note
===============================================================================

I stand alone, on the cliffs of the world...