Artist: Nick Drake, Title: Strange Meeting II - EADGBE

Card image

E

Card image

A

Card image

D

Card image

G

Card image

B

Card image

E

Nick Drake - Strange Meeting II

STRANGE MEETING II

Tuning standard. Capo 3rd fret (slightly flat)



Verses:

    hp                     h          hp                     h   *
|--------0-------|----------------|--------0-------|----------------|
|--010--------3--|----------------|--010----3---3--|----------------|
|-----2-----2----|2----2--01---1--|-----2-----2----|2----2--01---1--|
|--2---2---0---0-|---0-------2----|--2---2---0---0-|---0-------2----|
|0---0-----------|--0---0---2---2-|0---0-----------|--0---0---2---2-|
|--------2---2---|1---1---0---0---|--------2---2---|1---1---0---0---|

                                                     hp
                                                   |--------0-------|
                                                   |010--1-------1--|
     (repeat  first  three  bars  then:            |---2-------2----|
                                                   |--2---2---2---2-|
                                                   |0---0---0---0---|
                                                   |----------------|

|-------(0)------|----------------|----------------|----------------|
|1----1--1----1--|--------0-------|--------3-------|----------------|
|---0-------0----|0----0-------0--|2----2-------2--|2----2--1----1--|
|--2---2---2---2-|---0-------0----|---0-------0----|---2-------2----|
|3---3---3---3---|--2---2---2---2-|--0---0---0---0-|--2---2---2---2-|
|----------------|3---3---3---3---|1---1---1---1---|0---0---0---0---|



and repeat 1st 4 bars, playing a 2 at *




Link at end of verse:


|----------------|--------0-------|--------|
|0---------------|0---------------|0-------|
|-----2--1----1--|-----1-------1--|-----1--|
|---2-------2----|---2-------2----|---2----|
|--2---2---2---2-|--2---2---2---2-|--2---2-|
|0---0---0---0---|0---0---0---0---|0---0---|


(Intro is just last 4 bars of verse + link)


end of last verse:

    hp
|--------0-------|-
|--010--------1--|1
|-----2-----2----|4  (arpeggio)
|--2---2---2---2-|2
|0---0---0---0---|0
|----------------|-


Tabbed by Chris Healey