Artist: The Tallest Man on Earth, Title: The Wild Hunt - cfcfcf

C
F
C
F
C
F

The Tallest Man on Earth - The Wild Hunt

Hey guys. So this is probably 99% accurate.  The strumming is a little tricky, but just 
to the song you'll figure it out.  Technically the song is played in FCFCFC with capo 
but you're more likely to snap a string and it's easy enough to do EBEBEB and capo 
5th.  Rate and comment!

Best,
Mastabassa

Tuning:EBEBEB (top two strings remain the same.  The bottom four go down)
Capo:5th Fret
all chords are relative to capo.

Intro (part 1)                         (part 2)
E|--0---0---0---0---0---0---|--0---0---0---0----0---0---0---0---|
B|--0---0---0---0---0---0---|--0---0---0---0----0---0---0---0---|
E|--4---0---0---5---4---0---|--5---4---2---0----0---5---4---0---|
B|--5---4---2---2h3/5---4---|--7---5---4---0----2---2h3/5---4---|
E|--x---2---x---2---0---2---|--0---0---0---0----4---2---0---2---|
B|--5---0---2---x---x---0---|--0---0---0---0----x---x---x---0---|
Verse
E|--0---0---0---0----0---0---0---0---0---0---0---0---|
B|--0---0---0---0----0---0---0---0---0---0---0---0---|
E|--4---0---0---4----0---0---4---0---0---4---0---4---|
B|--5---4---2---5----4---5---5---4---2---5---5---5---|
E|--0---0---5---0----0---2---0---0---5---0---2---0---|
B|--x---x---x---x----x---0---x---x---x---x---0---x---|
Chorus
E|--0---0-----0---x---0---0---0---0---|
B|--0---0-----0---x---0---0---0---0---|
E|--4---0-----4---x---0---5---4---0---|
B|--5---2-----5---2---4---2h3/5---4---|
E|--0---5-4-2-0---0---2---2---0---2---|
B|--x---x–----x---2---0---x---x---x---|
Outro
E|--x---x---x---x---x---x---x-----x---x---x---x---x--x---|
B|--x---x---x---x---x---x---x-----x---x---x---x---x--x---|
E|--x---x---x---x---x---x---x-----x---x---x---x---x--x---|
B|--2---4---5---7---7---5---10---2---4---5---7---0---5---|
E|--0---0---0---0---0---0---0----0---0---0---0---0---0---|
B|--2---4---5---7---7---5---10---2---4---5---7---0---5---|
ORDER
Intro (part 1 and 2)
Versex2
Chorus
Intro (only part 1)
Verse
Chorus
Intro (part 1 and 2)
Verse
Chorus
Intro (part 1 and 2)
Outro