Artist: Nick Drake, Title: Voice from the Mountain - EADGBE

E
A
D
G
B
E

Nick Drake - Voice from the Mountain

VOICE FROM THE MOUNTAIN

Tuning: EADEBE
capo 1st fret or none (seems about halfway to me)



Main patterns:

 |----------------|----------------|
 |2-2--2--2--0----|3-3--0--2--2----|
 |0-0--0--2--2----|2-2--2--0--0----|
 |2-2--2--1--1----|0-0--0--2--2----|
 |0-0000000000-00-|0-0000000000-00-|
0|---------------0|---------------0|
       (A)               (B)

 |----------------|
 |3-3--3--2--2----|
 |0-0--0--0--0----|
 |5-5--4--2--2----|
 |0-0000000000-00-|
0|---------------0|
        (C)

Intro and between-verse links are just A;
Verses go AB twice then three and a half bars of C.

Variations:

1. Link into verse 2 ends:

  |--------------------------------|
  |2---2-----2-----2-----020-------|
  |0---0-----0-----2---------2-----| (expanded to
  |2---2-----2-----1-----------1---|  double width)
  |0---0-0-0-0-0-0-0-0-0-0-------0-|
0-|--------------------------------|

2. first bar B in verses 2 and 4 goes:

|----------(7)(7)|  (the sevens are quiet and are a
|3-3--0--2--5--3-|   very difficult stretch - not
|2-2--2--0--0--0-|   recommended unless you have
|0-0--0--2--5--4-|   Drake-like long fingers)
|0-00000000000000|
|----------------|

3. the C patterns in verse 4 include some bass variations:

|----------------|
|3-3--3--2--2----|
|0-0--0--0--0----|
|5-5--4--2--2----|
|0-00-00-00-0-00-|
|----0--0--0----0|


Middle Section:

|--0--0---2------|      |--0--0---2------|
|2---0--2----2---|      |2---0--2--2-----|
|0--00--2---2-2--| (x3) |0--00--2---2---2|
|2---0-00--0---0-|      |2---0-00----0-0-|
|0---0--0--------|      |0---0--0-----0--|
|---------------0|      |----------------|


Tabbed by Chris Healey